0
SECTION
2
HEADER
9
$ACADVER
1
AC0904
9
$TEXTSTYLE
7
STANDARD
9
$CECOLOR
62
256
9
$AUNITS
70
0
9
$LUNITS
70
3
9
$EXTMIN
10
9.5910
20
16.8250
9
$EXTMAX
10
12.7790
20
19.4590
9
$FILLMODE
70
1
0
ENDSEC
0
SECTION
2
TABLES
0
TABLE
2
LTYPE
70
1
0
LTYPE
2
CONTINUOUS
70
64
3
Solid line
72
65
73
0
40
0.0
0
ENDTAB
0
TABLE
2
LAYER
70
5
0
LAYER
2
1
70
64
62
1
6
CONTINUOUS
0
LAYER
2
2
70
64
62
1
6
CONTINUOUS
0
LAYER
2
3
70
64
62
1
6
CONTINUOUS
0
LAYER
2
8
70
64
62
1
6
CONTINUOUS
0
LAYER
2
16
70
64
62
1
6
CONTINUOUS
0
LAYER
2
21
70
64
62
1
6
CONTINUOUS
0
ENDTAB
0
ENDSEC
0
SECTION
2
BLOCKS
0
BLOCK
2
32767
70
0
10
0.0
20
0.0
0
POLYLINE
8
0
66
1
70
1
40
0.5
41
0.5
0
VERTEX
8
0
10
-0.25
20
0.0
42
1.0
0
VERTEX
8
0
10
0.25
20
0.0
42
1.0
0
SEQEND
0
ENDBLK
0
BLOCK
2
32766
70
0
10
0.0
20
0.0
0
INSERT
8
23
2
32767
10
0.7360
20
0.4732
41
0.2500
42
0.2500
0
POLYLINE
8
23
66
1
40
0.2500
41
0.2500
0
VERTEX
8
23
10
0.735988
20
0.473230
42
0.107395
0
VERTEX
8
23
10
0.473230
20
0.735988
42
0.107395
0
SEQEND
0
INSERT
8
23
2
32767
10
0.4732
20
0.7360
41
0.2500
42
0.2500
0
INSERT
8
23
2
32767
10
-0.4732
20
0.7360
41
0.2500
42
0.2500
0
POLYLINE
8
23
66
1
40
0.2500
41
0.2500
0
VERTEX
8
23
10
-0.473230
20
0.735988
42
0.107395
0
VERTEX
8
23
10
-0.735988
20
0.473230
42
0.107395
0
SEQEND
0
INSERT
8
23
2
32767
10
-0.7360
20
0.4732
41
0.2500
42
0.2500
0
INSERT
8
23
2
32767
10
-0.7360
20
-0.4732
41
0.2500
42
0.2500
0
POLYLINE
8
23
66
1
40
0.2500
41
0.2500
0
VERTEX
8
23
10
-0.735988
20
-0.473230
42
0.107395
0
VERTEX
8
23
10
-0.473230
20
-0.735988
42
0.107395
0
SEQEND
0
INSERT
8
23
2
32767
10
-0.4732
20
-0.7360
41
0.2500
42
0.2500
0
INSERT
8
23
2
32767
10
0.4732
20
-0.7360
41
0.2500
42
0.2500
0
POLYLINE
8
23
66
1
40
0.2500
41
0.2500
0
VERTEX
8
23
10
0.473230
20
-0.735988
42
0.107395
0
VERTEX
8
23
10
0.735988
20
-0.473230
42
0.107395
0
SEQEND
0
INSERT
8
23
2
32767
10
0.7360
20
-0.4732
41
0.2500
42
0.2500
0
ENDBLK
0
BLOCK
2
0
70
0
10
0.0
20
0.0
0
TRACE
8
0
10
-0.0350
20
-0.0350
11
-0.0350
21
0.0350
12
0.0350
22
-0.0350
13
0.0350
23
0.0350
0
ENDBLK
0
BLOCK
2
1
70
0
10
0.0
20
0.0
0
INSERT
8
0
2
32767
10
0.0000
20
0.0000
41
0.0560
42
0.0560
0
ENDBLK
0
BLOCK
2
2
70
0
10
0.0
20
0.0
0
INSERT
8
0
2
32766
10
0.0000
20
0.0000
41
0.0460
42
0.0460
0
ENDBLK
0
BLOCK
2
3
70
0
10
0.0
20
0.0
0
INSERT
8
0
2
32767
10
0.0000
20
0.0000
41
0.0700
42
0.0700
0
ENDBLK
0
BLOCK
2
4
70
0
10
0.0
20
0.0
0
INSERT
8
0
2
32767
10
0.0000
20
0.0000
41
0.0600
42
0.0600
0
ENDBLK
0
BLOCK
2
5
70
0
10
0.0
20
0.0
0
INSERT
8
0
2
32767
10
0.0000
20
0.0000
41
0.0480
42
0.0480
0
ENDBLK
0
BLOCK
2
6
70
0
10
0.0
20
0.0
0
INSERT
8
0
2
32766
10
0.0000
20
0.0000
41
0.0380
42
0.0380
0
ENDBLK
0
BLOCK
2
7
70
0
10
0.0
20
0.0
0
TRACE
8
0
10
-0.0300
20
-0.0300
11
-0.0300
21
0.0300
12
0.0300
22
-0.0300
13
0.0300
23
0.0300
0
ENDBLK
0
ENDSEC
0
SECTION
2
ENTITIES
0
INSERT
8
1
2
32767
10
9.8900
20
19.1300
41
0.0180
42
0.0180
0
TRACE
8
1
10
9.8836
20
19.1236
11
9.8964
21
19.1364
12
9.9036
22
19.1036
13
9.9164
23
19.1164
0
INSERT
8
1
2
32767
10
9.9100
20
19.1100
41
0.0180
42
0.0180
0
INSERT
8
1
2
32767
10
9.8400
20
18.8400
41
0.0180
42
0.0180
0
TRACE
8
1
10
9.8464
20
18.8336
11
9.8336
21
18.8464
12
9.8964
22
18.8836
13
9.8836
23
18.8964
0
INSERT
8
1
2
32767
10
9.8900
20
18.8900
41
0.0180
42
0.0180
0
INSERT
8
1
2
32767
10
9.7800
20
18.8400
41
0.0180
42
0.0180
0
TRACE
8
1
10
9.7800
20
18.8310
11
9.7800
21
18.8490
12
9.8400
22
18.8310
13
9.8400
23
18.8490
0
INSERT
8
1
2
32767
10
9.8400
20
18.8400
41
0.0180
42
0.0180
0
INSERT
8
1
2
32767
10
10.7500
20
17.3600
41
0.0180
42
0.0180
0
TRACE
8
1
10
10.7500
20
17.3510
11
10.7500
21
17.3690
12
10.7800
22
17.3510
13
10.7800
23
17.3690
0
INSERT
8
1
2
32767
10
10.7800
20
17.3600
41
0.0180
42
0.0180
0
INSERT
8
1
2
32767
10
10.7800
20
17.3600
41
0.0180
42
0.0180
0
TRACE
8
1
10
10.7890
20
17.3600
11
10.7710
21
17.3600
12
10.7890
22
17.3800
13
10.7710
23
17.3800
0
INSERT
8
1
2
32767
10
10.7800
20
17.3800
41
0.0180
42
0.0180
0
INSERT
8
1
2
32767
10
10.6100
20
17.6300
41
0.0180
42
0.0180
0
TRACE
8
1
10
10.6036
20
17.6236
11
10.6164
21
17.6364
12
10.6136
22
17.6136
13
10.6264
23
17.6264
0
INSERT
8
1
2
32767
10
10.6200
20
17.6200
41
0.0180
42
0.0180
0
INSERT
8
1
2
32767
10
10.6200
20
17.6200
41
0.0180
42
0.0180
0
TRACE
8
1
10
10.6200
20
17.6110
11
10.6200
21
17.6290
12
10.7600
22
17.6110
13
10.7600
23
17.6290
0
INSERT
8
1
2
32767
10
10.7600
20
17.6200
41
0.0180
42
0.0180
0
INSERT
8
1
2
32767
10
9.8200
20
16.9500
41
0.0180
42
0.0180
0
TRACE
8
1
10
9.8264
20
16.9436
11
9.8136
21
16.9564
12
9.9864
22
17.1036
13
9.9736
23
17.1164
0
INSERT
8
1
2
32767
10
9.9800
20
17.1100
41
0.0180
42
0.0180
0
INSERT
8
1
2
32767
10
9.9800
20
17.1100
41
0.0180
42
0.0180
0
TRACE
8
1
10
9.9890
20
17.1100
11
9.9710
21
17.1100
12
9.9890
22
17.1400
13
9.9710
23
17.1400
0
INSERT
8
1
2
32767
10
9.9800
20
17.1400
41
0.0180
42
0.0180
0
INSERT
8
1
2
32767
10
9.9800
20
17.1400
41
0.0180
42
0.0180
0
TRACE
8
1
10
9.9890
20
17.1400
11
9.9710
21
17.1400
12
9.9890
22
17.3900
13
9.9710
23
17.3900
0
INSERT
8
1
2
32767
10
9.9800
20
17.3900
41
0.0180
42
0.0180
0
INSERT
8
1
2
32767
10
9.9100
20
17.4600
41
0.0180
42
0.0180
0
TRACE
8
1
10
9.9036
20
17.4536
11
9.9164
21
17.4664
12
9.9736
22
17.3836
13
9.9864
23
17.3964
0
INSERT
8
1
2
32767
10
9.9800
20
17.3900
41
0.0180
42
0.0180
0
INSERT
8
1
2
32767
10
9.8400
20
17.5300
41
0.0180
42
0.0180
0
TRACE
8
1
10
9.8336
20
17.5236
11
9.8464
21
17.5364
12
9.9036
22
17.4536
13
9.9164
23
17.4664
0
INSERT
8
1
2
32767
10
9.9100
20
17.4600
41
0.0180
42
0.0180
0
INSERT
8
1
2
32767
10
9.8300
20
17.5300
41
0.0180
42
0.0180
0
TRACE
8
1
10
9.8300
20
17.5210
11
9.8300
21
17.5390
12
9.8400
22
17.5210
13
9.8400
23
17.5390
0
INSERT
8
1
2
32767
10
9.8400
20
17.5300
41
0.0180
42
0.0180
0
INSERT
8
1
2
32767
10
9.8300
20
17.5300
41
0.0180
42
0.0180
0
TRACE
8
1
10
9.8390
20
17.5300
11
9.8210
21
17.5300
12
9.8390
22
17.7100
13
9.8210
23
17.7100
0
INSERT
8
1
2
32767
10
9.8300
20
17.7100
41
0.0180
42
0.0180
0
INSERT
8
1
2
32767
10
9.8300
20
17.7100
41
0.0180
42
0.0180
0
TRACE
8
1
10
9.8364
20
17.7036
11
9.8236
21
17.7164
12
9.8964
22
17.7636
13
9.8836
23
17.7764
0
INSERT
8
1
2
32767
10
9.8900
20
17.7700
41
0.0180
42
0.0180
0
INSERT
8
1
2
32767
10
9.8900
20
17.7700
41
0.0180
42
0.0180
0
TRACE
8
1
10
9.8990
20
17.7700
11
9.8810
21
17.7700
12
9.8990
22
17.8400
13
9.8810
23
17.8400
0
INSERT
8
1
2
32767
10
9.8900
20
17.8400
41
0.0180
42
0.0180
0
INSERT
8
1
2
32767
10
9.8200
20
17.3600
41
0.0180
42
0.0180
0
TRACE
8
1
10
9.8290
20
17.3600
11
9.8110
21
17.3600
12
9.8290
22
17.4400
13
9.8110
23
17.4400
0
INSERT
8
1
2
32767
10
9.8200
20
17.4400
41
0.0180
42
0.0180
0
INSERT
8
1
2
32767
10
9.7800
20
17.4700
41
0.0180
42
0.0180
0
TRACE
8
1
10
9.7736
20
17.4636
11
9.7864
21
17.4764
12
9.8036
22
17.4336
13
9.8164
23
17.4464
0
INSERT
8
1
2
32767
10
9.8100
20
17.4400
41
0.0180
42
0.0180
0
INSERT
8
1
2
32767
10
9.7800
20
17.4700
41
0.0180
42
0.0180
0
TRACE
8
1
10
9.7890
20
17.4700
11
9.7710
21
17.4700
12
9.7890
22
18.5400
13
9.7710
23
18.5400
0
INSERT
8
1
2
32767
10
9.7800
20
18.5400
41
0.0180
42
0.0180
0
INSERT
8
1
2
32767
10
10.3000
20
17.4600
41
0.0180
42
0.0180
0
TRACE
8
1
10
10.2936
20
17.4536
11
10.3064
21
17.4664
12
10.3136
22
17.4336
13
10.3264
23
17.4464
0
INSERT
8
1
2
32767
10
10.3200
20
17.4400
41
0.0180
42
0.0180
0
INSERT
8
1
2
32767
10
10.3000
20
17.4600
41
0.0180
42
0.0180
0
TRACE
8
1
10
10.3090
20
17.4600
11
10.2910
21
17.4600
12
10.3090
22
17.9000
13
10.2910
23
17.9000
0
INSERT
8
1
2
32767
10
10.3000
20
17.9000
41
0.0180
42
0.0180
0
INSERT
8
1
2
32767
10
10.8700
20
19.1100
41
0.0180
42
0.0180
0
TRACE
8
1
10
10.8790
20
19.1100
11
10.8610
21
19.1100
12
10.8790
22
19.3700
13
10.8610
23
19.3700
0
INSERT
8
1
2
32767
10
10.8700
20
19.3700
41
0.0180
42
0.0180
0
INSERT
8
1
2
32767
10
10.8700
20
19.1100
41
0.0180
42
0.0180
0
TRACE
8
1
10
10.8700
20
19.1010
11
10.8700
21
19.1190
12
10.9800
22
19.1010
13
10.9800
23
19.1190
0
INSERT
8
1
2
32767
10
10.9800
20
19.1100
41
0.0180
42
0.0180
0
INSERT
8
1
2
32767
10
10.8700
20
19.3700
41
0.0180
42
0.0180
0
TRACE
8
1
10
10.8700
20
19.3610
11
10.8700
21
19.3790
12
12.6800
22
19.3610
13
12.6800
23
19.3790
0
INSERT
8
1
2
32767
10
12.6800
20
19.3700
41
0.0180
42
0.0180
0
INSERT
8
1
2
32767
10
11.8400
20
17.9700
41
0.0180
42
0.0180
0
TRACE
8
1
10
11.8400
20
17.9610
11
11.8400
21
17.9790
12
12.3200
22
17.9610
13
12.3200
23
17.9790
0
INSERT
8
1
2
32767
10
12.3200
20
17.9700
41
0.0180
42
0.0180
0
INSERT
8
1
2
32767
10
11.8400
20
17.9600
41
0.0180
42
0.0180
0
TRACE
8
1
10
11.8490
20
17.9600
11
11.8310
21
17.9600
12
11.8490
22
17.9700
13
11.8310
23
17.9700
0
INSERT
8
1
2
32767
10
11.8400
20
17.9700
41
0.0180
42
0.0180
0
INSERT
8
1
2
32767
10
11.8400
20
17.8100
41
0.0180
42
0.0180
0
TRACE
8
1
10
11.8490
20
17.8100
11
11.8310
21
17.8100
12
11.8490
22
17.9600
13
11.8310
23
17.9600
0
INSERT
8
1
2
32767
10
11.8400
20
17.9600
41
0.0180
42
0.0180
0
INSERT
8
1
2
32767
10
11.6700
20
17.6400
41
0.0180
42
0.0180
0
TRACE
8
1
10
11.6764
20
17.6336
11
11.6636
21
17.6464
12
11.8464
22
17.8036
13
11.8336
23
17.8164
0
INSERT
8
1
2
32767
10
11.8400
20
17.8100
41
0.0180
42
0.0180
0
INSERT
8
1
2
32767
10
11.4800
20
17.6400
41
0.0180
42
0.0180
0
TRACE
8
1
10
11.4800
20
17.6310
11
11.4800
21
17.6490
12
11.6700
22
17.6310
13
11.6700
23
17.6490
0
INSERT
8
1
2
32767
10
11.6700
20
17.6400
41
0.0180
42
0.0180
0
INSERT
8
1
2
32767
10
11.9000
20
17.8600
41
0.0180
42
0.0180
0
TRACE
8
1
10
11.9064
20
17.8536
11
11.8936
21
17.8664
12
11.9764
22
17.9236
13
11.9636
23
17.9364
0
INSERT
8
1
2
32767
10
11.9700
20
17.9300
41
0.0180
42
0.0180
0
INSERT
8
1
2
32767
10
11.9000
20
17.8000
41
0.0180
42
0.0180
0
TRACE
8
1
10
11.9090
20
17.8000
11
11.8910
21
17.8000
12
11.9090
22
17.8600
13
11.8910
23
17.8600
0
INSERT
8
1
2
32767
10
11.9000
20
17.8600
41
0.0180
42
0.0180
0
INSERT
8
1
2
32767
10
11.7000
20
17.6000
41
0.0180
42
0.0180
0
TRACE
8
1
10
11.7064
20
17.5936
11
11.6936
21
17.6064
12
11.9064
22
17.7936
13
11.8936
23
17.8064
0
INSERT
8
1
2
32767
10
11.9000
20
17.8000
41
0.0180
42
0.0180
0
INSERT
8
1
2
32767
10
11.6400
20
17.6000
41
0.0180
42
0.0180
0
TRACE
8
1
10
11.6400
20
17.5910
11
11.6400
21
17.6090
12
11.7000
22
17.5910
13
11.7000
23
17.6090
0
INSERT
8
1
2
32767
10
11.7000
20
17.6000
41
0.0180
42
0.0180
0
INSERT
8
1
2
32767
10
11.7600
20
17.6000
41
0.0180
42
0.0180
0
TRACE
8
1
10
11.7664
20
17.5936
11
11.7536
21
17.6064
12
11.9864
22
17.8136
13
11.9736
23
17.8264
0
INSERT
8
1
2
32767
10
11.9800
20
17.8200
41
0.0180
42
0.0180
0
INSERT
8
1
2
32767
10
9.9500
20
18.2800
41
0.0180
42
0.0180
0
TRACE
8
1
10
9.9500
20
18.2710
11
9.9500
21
18.2890
12
10.4200
22
18.2710
13
10.4200
23
18.2890
0
INSERT
8
1
2
32767
10
10.4200
20
18.2800
41
0.0180
42
0.0180
0
INSERT
8
1
2
32767
10
10.4200
20
18.2800
41
0.0180
42
0.0180
0
TRACE
8
1
10
10.4264
20
18.2736
11
10.4136
21
18.2864
12
10.5364
22
18.3836
13
10.5236
23
18.3964
0
INSERT
8
1
2
32767
10
10.5300
20
18.3900
41
0.0180
42
0.0180
0
INSERT
8
1
2
32767
10
10.5300
20
18.3900
41
0.0180
42
0.0180
0
TRACE
8
1
10
10.5300
20
18.3810
11
10.5300
21
18.3990
12
10.6900
22
18.3810
13
10.6900
23
18.3990
0
INSERT
8
1
2
32767
10
10.6900
20
18.3900
41
0.0180
42
0.0180
0
INSERT
8
1
2
32767
10
10.6800
20
18.3800
41
0.0180
42
0.0180
0
TRACE
8
1
10
10.6864
20
18.3736
11
10.6736
21
18.3864
12
10.6964
22
18.3836
13
10.6836
23
18.3964
0
INSERT
8
1
2
32767
10
10.6900
20
18.3900
41
0.0180
42
0.0180
0
INSERT
8
1
2
32767
10
11.7300
20
19.1600
41
0.0180
42
0.0180
0
TRACE
8
1
10
11.7390
20
19.1600
11
11.7210
21
19.1600
12
11.7390
22
19.2600
13
11.7210
23
19.2600
0
INSERT
8
1
2
32767
10
11.7300
20
19.2600
41
0.0180
42
0.0180
0
INSERT
8
1
2
32767
10
10.9200
20
19.2300
41
0.0180
42
0.0180
0
TRACE
8
1
10
10.9290
20
19.2300
11
10.9110
21
19.2300
12
10.9290
22
19.3200
13
10.9110
23
19.3200
0
INSERT
8
1
2
32767
10
10.9200
20
19.3200
41
0.0180
42
0.0180
0
INSERT
8
1
2
32767
10
11.9700
20
17.2200
41
0.0180
42
0.0180
0
TRACE
8
1
10
11.9636
20
17.2136
11
11.9764
21
17.2264
12
12.0736
22
17.1036
13
12.0864
23
17.1164
0
INSERT
8
1
2
32767
10
12.0800
20
17.1100
41
0.0180
42
0.0180
0
INSERT
8
1
2
32767
10
12.0800
20
17.1100
41
0.0180
42
0.0180
0
TRACE
8
1
10
12.0800
20
17.1010
11
12.0800
21
17.1190
12
12.5500
22
17.1010
13
12.5500
23
17.1190
0
INSERT
8
1
2
32767
10
12.5500
20
17.1100
41
0.0180
42
0.0180
0
INSERT
8
1
2
32767
10
12.2900
20
18.1700
41
0.0180
42
0.0180
0
TRACE
8
1
10
12.2900
20
18.1610
11
12.2900
21
18.1790
12
12.6200
22
18.1610
13
12.6200
23
18.1790
0
INSERT
8
1
2
32767
10
12.6200
20
18.1700
41
0.0180
42
0.0180
0
INSERT
8
1
2
32767
10
11.0900
20
19.1600
41
0.0180
42
0.0180
0
TRACE
8
1
10
11.0900
20
19.1510
11
11.0900
21
19.1690
12
11.7300
22
19.1510
13
11.7300
23
19.1690
0
INSERT
8
1
2
32767
10
11.7300
20
19.1600
41
0.0180
42
0.0180
0
INSERT
8
1
2
32767
10
10.9900
20
19.2600
41
0.0180
42
0.0180
0
TRACE
8
1
10
10.9836
20
19.2536
11
10.9964
21
19.2664
12
11.0836
22
19.1536
13
11.0964
23
19.1664
0
INSERT
8
1
2
32767
10
11.0900
20
19.1600
41
0.0180
42
0.0180
0
INSERT
8
1
2
32767
10
11.1400
20
18.6500
41
0.0180
42
0.0180
0
TRACE
8
1
10
11.1336
20
18.6436
11
11.1464
21
18.6564
12
11.1836
22
18.5936
13
11.1964
23
18.6064
0
INSERT
8
1
2
32767
10
11.1900
20
18.6000
41
0.0180
42
0.0180
0
INSERT
8
1
2
32767
10
11.1900
20
18.6000
41
0.0180
42
0.0180
0
TRACE
8
1
10
11.1900
20
18.5910
11
11.1900
21
18.6090
12
11.3100
22
18.5910
13
11.3100
23
18.6090
0
INSERT
8
1
2
32767
10
11.3100
20
18.6000
41
0.0180
42
0.0180
0
INSERT
8
1
2
32767
10
11.1400
20
18.7600
41
0.0180
42
0.0180
0
TRACE
8
1
10
11.1490
20
18.7600
11
11.1310
21
18.7600
12
11.1490
22
18.7900
13
11.1310
23
18.7900
0
INSERT
8
1
2
32767
10
11.1400
20
18.7900
41
0.0180
42
0.0180
0
INSERT
8
1
2
32767
10
11.1400
20
18.7600
41
0.0180
42
0.0180
0
TRACE
8
1
10
11.1490
20
18.7600
11
11.1310
21
18.7600
12
11.1490
22
19.0100
13
11.1310
23
19.0100
0
INSERT
8
1
2
32767
10
11.1400
20
19.0100
41
0.0180
42
0.0180
0
INSERT
8
1
2
32767
10
11.0900
20
19.0600
41
0.0180
42
0.0180
0
TRACE
8
1
10
11.0836
20
19.0536
11
11.0964
21
19.0664
12
11.1336
22
19.0036
13
11.1464
23
19.0164
0
INSERT
8
1
2
32767
10
11.1400
20
19.0100
41
0.0180
42
0.0180
0
INSERT
8
1
2
32767
10
11.4400
20
18.7000
41
0.0180
42
0.0180
0
TRACE
8
1
10
11.4490
20
18.7000
11
11.4310
21
18.7000
12
11.4490
22
18.8900
13
11.4310
23
18.8900
0
INSERT
8
1
2
32767
10
11.4400
20
18.8900
41
0.0180
42
0.0180
0
INSERT
8
1
2
32767
10
11.0500
20
18.7000
41
0.0180
42
0.0180
0
TRACE
8
1
10
11.0500
20
18.6910
11
11.0500
21
18.7090
12
11.4400
22
18.6910
13
11.4400
23
18.7090
0
INSERT
8
1
2
32767
10
11.4400
20
18.7000
41
0.0180
42
0.0180
0
INSERT
8
1
2
32767
10
11.0900
20
18.4000
41
0.0180
42
0.0180
0
TRACE
8
1
10
11.0990
20
18.4000
11
11.0810
21
18.4000
12
11.0990
22
18.5900
13
11.0810
23
18.5900
0
INSERT
8
1
2
32767
10
11.0900
20
18.5900
41
0.0180
42
0.0180
0
INSERT
8
1
2
32767
10
11.0900
20
18.4000
41
0.0180
42
0.0180
0
TRACE
8
1
10
11.0900
20
18.3910
11
11.0900
21
18.4090
12
11.1600
22
18.3910
13
11.1600
23
18.4090
0
INSERT
8
1
2
32767
10
11.1600
20
18.4000
41
0.0180
42
0.0180
0
INSERT
8
1
2
32767
10
11.7400
20
17.5800
41
0.0180
42
0.0180
0
TRACE
8
1
10
11.7464
20
17.5736
11
11.7336
21
17.5864
12
11.7764
22
17.6036
13
11.7636
23
17.6164
0
INSERT
8
1
2
32767
10
11.7700
20
17.6100
41
0.0180
42
0.0180
0
INSERT
8
1
2
32767
10
12.2800
20
17.2700
41
0.0180
42
0.0180
0
TRACE
8
1
10
12.2890
20
17.2700
11
12.2710
21
17.2700
12
12.2890
22
17.2800
13
12.2710
23
17.2800
0
INSERT
8
1
2
32767
10
12.2800
20
17.2800
41
0.0180
42
0.0180
0
INSERT
8
1
2
32767
10
12.2800
20
17.2800
41
0.0180
42
0.0180
0
TRACE
8
1
10
12.2890
20
17.2800
11
12.2710
21
17.2800
12
12.2890
22
17.3200
13
12.2710
23
17.3200
0
INSERT
8
1
2
32767
10
12.2800
20
17.3200
41
0.0180
42
0.0180
0
INSERT
8
1
2
32767
10
12.2800
20
17.3200
41
0.0180
42
0.0180
0
TRACE
8
1
10
12.2800
20
17.3110
11
12.2800
21
17.3290
12
12.5700
22
17.3110
13
12.5700
23
17.3290
0
INSERT
8
1
2
32767
10
12.5700
20
17.3200
41
0.0180
42
0.0180
0
INSERT
8
1
2
32767
10
11.6200
20
18.0900
41
0.0180
42
0.0180
0
TRACE
8
1
10
11.6290
20
18.0900
11
11.6110
21
18.0900
12
11.6290
22
18.1000
13
11.6110
23
18.1000
0
INSERT
8
1
2
32767
10
11.6200
20
18.1000
41
0.0180
42
0.0180
0
INSERT
8
1
2
32767
10
11.9100
20
18.0200
41
0.0180
42
0.0180
0
TRACE
8
1
10
11.9100
20
18.0110
11
11.9100
21
18.0290
12
11.9600
22
18.0110
13
11.9600
23
18.0290
0
INSERT
8
1
2
32767
10
11.9600
20
18.0200
41
0.0180
42
0.0180
0
INSERT
8
1
2
32767
10
11.0800
20
18.9600
41
0.0180
42
0.0180
0
TRACE
8
1
10
11.0800
20
18.9510
11
11.0800
21
18.9690
12
11.0900
22
18.9510
13
11.0900
23
18.9690
0
INSERT
8
1
2
32767
10
11.0900
20
18.9600
41
0.0180
42
0.0180
0
INSERT
8
1
2
32767
10
11.0000
20
18.9600
41
0.0180
42
0.0180
0
TRACE
8
1
10
11.0000
20
18.9510
11
11.0000
21
18.9690
12
11.0800
22
18.9510
13
11.0800
23
18.9690
0
INSERT
8
1
2
32767
10
11.0800
20
18.9600
41
0.0180
42
0.0180
0
INSERT
8
1
2
32767
10
10.9900
20
18.9600
41
0.0180
42
0.0180
0
TRACE
8
1
10
10.9900
20
18.9510
11
10.9900
21
18.9690
12
11.0000
22
18.9510
13
11.0000
23
18.9690
0
INSERT
8
1
2
32767
10
11.0000
20
18.9600
41
0.0180
42
0.0180
0
INSERT
8
1
2
32767
10
11.3800
20
18.9600
41
0.0180
42
0.0180
0
TRACE
8
1
10
11.3800
20
18.9510
11
11.3800
21
18.9690
12
11.3900
22
18.9510
13
11.3900
23
18.9690
0
INSERT
8
1
2
32767
10
11.3900
20
18.9600
41
0.0180
42
0.0180
0
INSERT
8
1
2
32767
10
11.1900
20
18.9600
41
0.0180
42
0.0180
0
TRACE
8
1
10
11.1900
20
18.9510
11
11.1900
21
18.9690
12
11.2000
22
18.9510
13
11.2000
23
18.9690
0
INSERT
8
1
2
32767
10
11.2000
20
18.9600
41
0.0180
42
0.0180
0
INSERT
8
1
2
32767
10
9.9200
20
19.1000
41
0.0180
42
0.0180
0
TRACE
8
1
10
9.9136
20
19.0936
11
9.9264
21
19.1064
12
9.9936
22
19.0136
13
10.0064
23
19.0264
0
INSERT
8
1
2
32767
10
10.0000
20
19.0200
41
0.0180
42
0.0180
0
INSERT
8
1
2
32767
10
11.9600
20
18.0200
41
0.0180
42
0.0180
0
TRACE
8
1
10
11.9600
20
18.0110
11
11.9600
21
18.0290
12
11.9700
22
18.0110
13
11.9700
23
18.0290
0
INSERT
8
1
2
32767
10
11.9700
20
18.0200
41
0.0180
42
0.0180
0
INSERT
8
1
2
32767
10
10.6800
20
18.5800
41
0.0180
42
0.0180
0
TRACE
8
1
10
10.6864
20
18.5736
11
10.6736
21
18.5864
12
10.6964
22
18.5836
13
10.6836
23
18.5964
0
INSERT
8
1
2
32767
10
10.6900
20
18.5900
41
0.0180
42
0.0180
0
INSERT
8
1
2
32767
10
10.5000
20
18.5800
41
0.0180
42
0.0180
0
TRACE
8
1
10
10.5000
20
18.5710
11
10.5000
21
18.5890
12
10.6800
22
18.5710
13
10.6800
23
18.5890
0
INSERT
8
1
2
32767
10
10.6800
20
18.5800
41
0.0180
42
0.0180
0
INSERT
8
1
2
32767
10
10.4600
20
18.5400
41
0.0180
42
0.0180
0
TRACE
8
1
10
10.4664
20
18.5336
11
10.4536
21
18.5464
12
10.5064
22
18.5736
13
10.4936
23
18.5864
0
INSERT
8
1
2
32767
10
10.5000
20
18.5800
41
0.0180
42
0.0180
0
INSERT
8
1
2
32767
10
10.2800
20
18.5400
41
0.0180
42
0.0180
0
TRACE
8
1
10
10.2800
20
18.5310
11
10.2800
21
18.5490
12
10.4600
22
18.5310
13
10.4600
23
18.5490
0
INSERT
8
1
2
32767
10
10.4600
20
18.5400
41
0.0180
42
0.0180
0
INSERT
8
1
2
32767
10
10.2700
20
18.5400
41
0.0180
42
0.0180
0
TRACE
8
1
10
10.2700
20
18.5310
11
10.2700
21
18.5490
12
10.2800
22
18.5310
13
10.2800
23
18.5490
0
INSERT
8
1
2
32767
10
10.2800
20
18.5400
41
0.0180
42
0.0180
0
INSERT
8
1
2
32767
10
11.3000
20
17.9000
41
0.0180
42
0.0180
0
TRACE
8
1
10
11.3000
20
17.8910
11
11.3000
21
17.9090
12
11.3100
22
17.8910
13
11.3100
23
17.9090
0
INSERT
8
1
2
32767
10
11.3100
20
17.9000
41
0.0180
42
0.0180
0
INSERT
8
1
2
32767
10
10.8000
20
17.9000
41
0.0180
42
0.0180
0
TRACE
8
1
10
10.8000
20
17.8910
11
10.8000
21
17.9090
12
11.3000
22
17.8910
13
11.3000
23
17.9090
0
INSERT
8
1
2
32767
10
11.3000
20
17.9000
41
0.0180
42
0.0180
0
INSERT
8
1
2
32767
10
10.7200
20
17.9800
41
0.0180
42
0.0180
0
TRACE
8
1
10
10.7136
20
17.9736
11
10.7264
21
17.9864
12
10.7936
22
17.8936
13
10.8064
23
17.9064
0
INSERT
8
1
2
32767
10
10.8000
20
17.9000
41
0.0180
42
0.0180
0
INSERT
8
1
2
32767
10
10.7000
20
17.9800
41
0.0180
42
0.0180
0
TRACE
8
1
10
10.7000
20
17.9710
11
10.7000
21
17.9890
12
10.7200
22
17.9710
13
10.7200
23
17.9890
0
INSERT
8
1
2
32767
10
10.7200
20
17.9800
41
0.0180
42
0.0180
0
INSERT
8
1
2
32767
10
10.6900
20
17.9900
41
0.0180
42
0.0180
0
TRACE
8
1
10
10.6836
20
17.9836
11
10.6964
21
17.9964
12
10.6936
22
17.9736
13
10.7064
23
17.9864
0
INSERT
8
1
2
32767
10
10.7000
20
17.9800
41
0.0180
42
0.0180
0
INSERT
8
1
2
32767
10
10.2400
20
17.0300
41
0.0180
42
0.0180
0
TRACE
8
1
10
10.2360
20
17.0220
11
10.2440
21
17.0380
12
10.2560
22
17.0120
13
10.2640
23
17.0280
0
INSERT
8
1
2
32767
10
10.2600
20
17.0200
41
0.0180
42
0.0180
0
INSERT
8
1
2
32767
10
10.2600
20
17.0200
41
0.0180
42
0.0180
0
TRACE
8
1
10
10.2600
20
17.0110
11
10.2600
21
17.0290
12
10.5800
22
17.0110
13
10.5800
23
17.0290
0
INSERT
8
1
2
32767
10
10.5800
20
17.0200
41
0.0180
42
0.0180
0
INSERT
8
1
2
32767
10
10.2700
20
18.5400
41
0.0180
42
0.0180
0
TRACE
8
1
10
10.2700
20
18.5310
11
10.2700
21
18.5490
12
10.2800
22
18.5310
13
10.2800
23
18.5490
0
INSERT
8
1
2
32767
10
10.2800
20
18.5400
41
0.0180
42
0.0180
0
INSERT
8
1
2
32767
10
10.2800
20
18.5400
41
0.0180
42
0.0180
0
TRACE
8
1
10
10.2736
20
18.5336
11
10.2864
21
18.5464
12
10.2936
22
18.5136
13
10.3064
23
18.5264
0
INSERT
8
1
2
32767
10
10.3000
20
18.5200
41
0.0180
42
0.0180
0
INSERT
8
1
2
32767
10
10.3000
20
18.4000
41
0.0180
42
0.0180
0
TRACE
8
1
10
10.3090
20
18.4000
11
10.2910
21
18.4000
12
10.3090
22
18.5200
13
10.2910
23
18.5200
0
INSERT
8
1
2
32767
10
10.3000
20
18.5200
41
0.0180
42
0.0180
0
INSERT
8
1
2
32767
10
10.3000
20
18.4000
41
0.0180
42
0.0180
0
TRACE
8
1
10
10.2936
20
18.3936
11
10.3064
21
18.4064
12
10.3036
22
18.3836
13
10.3164
23
18.3964
0
INSERT
8
1
2
32767
10
10.3100
20
18.3900
41
0.0180
42
0.0180
0
INSERT
8
1
2
32767
10
10.2400
20
17.2200
41
0.0180
42
0.0180
0
TRACE
8
1
10
10.2490
20
17.2200
11
10.2310
21
17.2200
12
10.2490
22
17.2300
13
10.2310
23
17.2300
0
INSERT
8
1
2
32767
10
10.2400
20
17.2300
41
0.0180
42
0.0180
0
INSERT
8
1
2
32767
10
10.1600
20
17.1400
41
0.0180
42
0.0180
0
TRACE
8
1
10
10.1664
20
17.1336
11
10.1536
21
17.1464
12
10.2464
22
17.2136
13
10.2336
23
17.2264
0
INSERT
8
1
2
32767
10
10.2400
20
17.2200
41
0.0180
42
0.0180
0
INSERT
8
1
2
32767
10
10.1400
20
17.1400
41
0.0180
42
0.0180
0
TRACE
8
1
10
10.1400
20
17.1310
11
10.1400
21
17.1490
12
10.1600
22
17.1310
13
10.1600
23
17.1490
0
INSERT
8
1
2
32767
10
10.1600
20
17.1400
41
0.0180
42
0.0180
0
INSERT
8
1
2
32767
10
10.1400
20
17.1300
41
0.0180
42
0.0180
0
TRACE
8
1
10
10.1490
20
17.1300
11
10.1310
21
17.1300
12
10.1490
22
17.1400
13
10.1310
23
17.1400
0
INSERT
8
1
2
32767
10
10.1400
20
17.1400
41
0.0180
42
0.0180
0
INSERT
8
1
2
32767
10
9.7600
20
18.7300
41
0.0180
42
0.0180
0
TRACE
8
1
10
9.7690
20
18.7300
11
9.7510
21
18.7300
12
9.7690
22
18.7400
13
9.7510
23
18.7400
0
INSERT
8
1
2
32767
10
9.7600
20
18.7400
41
0.0180
42
0.0180
0
INSERT
8
1
2
32767
10
11.3000
20
17.7200
41
0.0180
42
0.0180
0
TRACE
8
1
10
11.2920
20
17.7160
11
11.3080
21
17.7240
12
11.3020
22
17.6960
13
11.3180
23
17.7040
0
INSERT
8
1
2
32767
10
11.3100
20
17.7000
41
0.0180
42
0.0180
0
INSERT
8
1
2
32767
10
11.3000
20
17.9800
41
0.0180
42
0.0180
0
TRACE
8
1
10
11.3090
20
17.9800
11
11.2910
21
17.9800
12
11.3090
22
18.0000
13
11.2910
23
18.0000
0
INSERT
8
1
2
32767
10
11.3000
20
18.0000
41
0.0180
42
0.0180
0
INSERT
8
1
2
32767
10
11.3000
20
18.0000
41
0.0180
42
0.0180
0
TRACE
8
1
10
11.3000
20
17.9910
11
11.3000
21
18.0090
12
11.3100
22
17.9910
13
11.3100
23
18.0090
0
INSERT
8
1
2
32767
10
11.3100
20
18.0000
41
0.0180
42
0.0180
0
INSERT
8
1
2
32767
10
9.9400
20
18.0800
41
0.0180
42
0.0180
0
TRACE
8
1
10
9.9400
20
18.0710
11
9.9400
21
18.0890
12
9.9500
22
18.0710
13
9.9500
23
18.0890
0
INSERT
8
1
2
32767
10
9.9500
20
18.0800
41
0.0180
42
0.0180
0
INSERT
8
1
2
32767
10
9.9000
20
18.0400
41
0.0180
42
0.0180
0
TRACE
8
1
10
9.9064
20
18.0336
11
9.8936
21
18.0464
12
9.9464
22
18.0736
13
9.9336
23
18.0864
0
INSERT
8
1
2
32767
10
9.9400
20
18.0800
41
0.0180
42
0.0180
0
INSERT
8
1
2
32767
10
9.9000
20
17.8600
41
0.0180
42
0.0180
0
TRACE
8
1
10
9.9090
20
17.8600
11
9.8910
21
17.8600
12
9.9090
22
18.0400
13
9.8910
23
18.0400
0
INSERT
8
1
2
32767
10
9.9000
20
18.0400
41
0.0180
42
0.0180
0
INSERT
8
1
2
32767
10
9.8900
20
17.8400
41
0.0180
42
0.0180
0
TRACE
8
1
10
9.8980
20
17.8360
11
9.8820
21
17.8440
12
9.9080
22
17.8560
13
9.8920
23
17.8640
0
INSERT
8
1
2
32767
10
9.9000
20
17.8600
41
0.0180
42
0.0180
0
INSERT
8
1
2
32767
10
11.3000
20
17.7000
41
0.0180
42
0.0180
0
TRACE
8
1
10
11.3000
20
17.6910
11
11.3000
21
17.7090
12
11.3100
22
17.6910
13
11.3100
23
17.7090
0
INSERT
8
1
2
32767
10
11.3100
20
17.7000
41
0.0180
42
0.0180
0
INSERT
8
1
2
32767
10
10.6000
20
17.1200
41
0.0180
42
0.0180
0
TRACE
8
1
10
10.6000
20
17.1110
11
10.6000
21
17.1290
12
10.8200
22
17.1110
13
10.8200
23
17.1290
0
INSERT
8
1
2
32767
10
10.8200
20
17.1200
41
0.0180
42
0.0180
0
INSERT
8
1
2
32767
10
10.5900
20
17.1200
41
0.0180
42
0.0180
0
TRACE
8
1
10
10.5900
20
17.1110
11
10.5900
21
17.1290
12
10.6000
22
17.1110
13
10.6000
23
17.1290
0
INSERT
8
1
2
32767
10
10.6000
20
17.1200
41
0.0180
42
0.0180
0
INSERT
8
1
2
32767
10
10.5900
20
17.6200
41
0.0180
42
0.0180
0
TRACE
8
1
10
10.5980
20
17.6160
11
10.5820
21
17.6240
12
10.6080
22
17.6360
13
10.5920
23
17.6440
0
INSERT
8
1
2
32767
10
10.6000
20
17.6400
41
0.0180
42
0.0180
0
INSERT
8
1
2
32767
10
10.6800
20
18.0800
41
0.0180
42
0.0180
0
TRACE
8
1
10
10.6864
20
18.0736
11
10.6736
21
18.0864
12
10.6964
22
18.0836
13
10.6836
23
18.0964
0
INSERT
8
1
2
32767
10
10.6900
20
18.0900
41
0.0180
42
0.0180
0
INSERT
8
1
2
32767
10
9.9400
20
18.1000
41
0.0180
42
0.0180
0
TRACE
8
1
10
9.9320
20
18.0960
11
9.9480
21
18.1040
12
9.9420
22
18.0760
13
9.9580
23
18.0840
0
INSERT
8
1
2
32767
10
9.9500
20
18.0800
41
0.0180
42
0.0180
0
INSERT
8
1
2
32767
10
9.7700
20
18.5400
41
0.0180
42
0.0180
0
TRACE
8
1
10
9.7700
20
18.5310
11
9.7700
21
18.5490
12
9.7800
22
18.5310
13
9.7800
23
18.5490
0
INSERT
8
1
2
32767
10
9.7800
20
18.5400
41
0.0180
42
0.0180
0
INSERT
8
1
2
32767
10
11.3100
20
18.5000
41
0.0180
42
0.0180
0
TRACE
8
1
10
11.3180
20
18.4960
11
11.3020
21
18.5040
12
11.3280
22
18.5160
13
11.3120
23
18.5240
0
INSERT
8
1
2
32767
10
11.3200
20
18.5200
41
0.0180
42
0.0180
0
INSERT
8
1
2
32767
10
11.3200
20
18.5200
41
0.0180
42
0.0180
0
TRACE
8
1
10
11.3264
20
18.5136
11
11.3136
21
18.5264
12
11.4864
22
18.6736
13
11.4736
23
18.6864
0
INSERT
8
1
2
32767
10
11.4800
20
18.6800
41
0.0180
42
0.0180
0
INSERT
8
1
2
32767
10
11.4800
20
18.6800
41
0.0180
42
0.0180
0
TRACE
8
1
10
11.4890
20
18.6800
11
11.4710
21
18.6800
12
11.4890
22
18.9600
13
11.4710
23
18.9600
0
INSERT
8
1
2
32767
10
11.4800
20
18.9600
41
0.0180
42
0.0180
0
INSERT
8
1
2
32767
10
11.4800
20
18.9600
41
0.0180
42
0.0180
0
TRACE
8
1
10
11.4800
20
18.9510
11
11.4800
21
18.9690
12
11.4900
22
18.9510
13
11.4900
23
18.9690
0
INSERT
8
1
2
32767
10
11.4900
20
18.9600
41
0.0180
42
0.0180
0
INSERT
8
1
2
32767
10
10.6900
20
18.1900
41
0.0180
42
0.0180
0
TRACE
8
1
10
10.6836
20
18.1836
11
10.6964
21
18.1964
12
10.6936
22
18.1736
13
10.7064
23
18.1864
0
INSERT
8
1
2
32767
10
10.7000
20
18.1800
41
0.0180
42
0.0180
0
INSERT
8
1
2
32767
10
10.6800
20
18.5000
41
0.0180
42
0.0180
0
TRACE
8
1
10
10.6736
20
18.4936
11
10.6864
21
18.5064
12
10.6836
22
18.4836
13
10.6964
23
18.4964
0
INSERT
8
1
2
32767
10
10.6900
20
18.4900
41
0.0180
42
0.0180
0
INSERT
8
1
2
32767
10
10.2400
20
17.2300
41
0.0180
42
0.0180
0
TRACE
8
1
10
10.2490
20
17.2300
11
10.2310
21
17.2300
12
10.2490
22
17.2400
13
10.2310
23
17.2400
0
INSERT
8
1
2
32767
10
10.2400
20
17.2400
41
0.0180
42
0.0180
0
INSERT
8
1
2
32767
10
10.2400
20
17.2400
41
0.0180
42
0.0180
0
TRACE
8
1
10
10.2464
20
17.2336
11
10.2336
21
17.2464
12
10.3664
22
17.3536
13
10.3536
23
17.3664
0
INSERT
8
1
2
32767
10
10.3600
20
17.3600
41
0.0180
42
0.0180
0
INSERT
8
1
2
32767
10
10.3600
20
17.3600
41
0.0180
42
0.0180
0
TRACE
8
1
10
10.3600
20
17.3510
11
10.3600
21
17.3690
12
10.7600
22
17.3510
13
10.7600
23
17.3690
0
INSERT
8
1
2
32767
10
10.7600
20
17.3600
41
0.0180
42
0.0180
0
INSERT
8
1
2
32767
10
10.7800
20
17.3800
41
0.0180
42
0.0180
0
TRACE
8
1
10
10.7890
20
17.3800
11
10.7710
21
17.3800
12
10.7890
22
17.6000
13
10.7710
23
17.6000
0
INSERT
8
1
2
32767
10
10.7800
20
17.6000
41
0.0180
42
0.0180
0
INSERT
8
1
2
32767
10
10.7600
20
17.6200
41
0.0180
42
0.0180
0
TRACE
8
1
10
10.7536
20
17.6136
11
10.7664
21
17.6264
12
10.7736
22
17.5936
13
10.7864
23
17.6064
0
INSERT
8
1
2
32767
10
10.7800
20
17.6000
41
0.0180
42
0.0180
0
INSERT
8
1
2
32767
10
9.8900
20
17.5900
41
0.0180
42
0.0180
0
TRACE
8
1
10
9.8964
20
17.5836
11
9.8836
21
17.5964
12
9.9064
22
17.5936
13
9.8936
23
17.6064
0
INSERT
8
1
2
32767
10
9.9000
20
17.6000
41
0.0180
42
0.0180
0
INSERT
8
1
2
32767
10
9.9000
20
17.6000
41
0.0180
42
0.0180
0
TRACE
8
1
10
9.9064
20
17.5936
11
9.8936
21
17.6064
12
10.0064
22
17.6936
13
9.9936
23
17.7064
0
INSERT
8
1
2
32767
10
10.0000
20
17.7000
41
0.0180
42
0.0180
0
INSERT
8
1
2
32767
10
10.0000
20
17.7000
41
0.0180
42
0.0180
0
TRACE
8
1
10
10.0090
20
17.7000
11
9.9910
21
17.7000
12
10.0090
22
18.1400
13
9.9910
23
18.1400
0
INSERT
8
1
2
32767
10
10.0000
20
18.1400
41
0.0180
42
0.0180
0
INSERT
8
1
2
32767
10
9.9400
20
18.2000
41
0.0180
42
0.0180
0
TRACE
8
1
10
9.9336
20
18.1936
11
9.9464
21
18.2064
12
9.9936
22
18.1336
13
10.0064
23
18.1464
0
INSERT
8
1
2
32767
10
10.0000
20
18.1400
41
0.0180
42
0.0180
0
INSERT
8
1
2
32767
10
9.9400
20
18.2000
41
0.0180
42
0.0180
0
TRACE
8
1
10
9.9490
20
18.2000
11
9.9310
21
18.2000
12
9.9490
22
18.2800
13
9.9310
23
18.2800
0
INSERT
8
1
2
32767
10
9.9400
20
18.2800
41
0.0180
42
0.0180
0
INSERT
8
1
2
32767
10
9.9400
20
18.2800
41
0.0180
42
0.0180
0
TRACE
8
1
10
9.9400
20
18.2710
11
9.9400
21
18.2890
12
9.9500
22
18.2710
13
9.9500
23
18.2890
0
INSERT
8
1
2
32767
10
9.9500
20
18.2800
41
0.0180
42
0.0180
0
INSERT
8
1
2
32767
10
9.9500
20
18.2800
41
0.0180
42
0.0180
0
TRACE
8
1
10
9.9580
20
18.2760
11
9.9420
21
18.2840
12
9.9680
22
18.2960
13
9.9520
23
18.3040
0
INSERT
8
1
2
32767
10
9.9600
20
18.3000
41
0.0180
42
0.0180
0
INSERT
8
1
2
32767
10
11.9600
20
17.9200
41
0.0180
42
0.0180
0
TRACE
8
1
10
11.9600
20
17.9110
11
11.9600
21
17.9290
12
11.9700
22
17.9110
13
11.9700
23
17.9290
0
INSERT
8
1
2
32767
10
11.9700
20
17.9200
41
0.0180
42
0.0180
0
INSERT
8
1
2
32767
10
10.1800
20
17.0200
41
0.0180
42
0.0180
0
TRACE
8
1
10
10.1890
20
17.0200
11
10.1710
21
17.0200
12
10.1890
22
17.0400
13
10.1710
23
17.0400
0
INSERT
8
1
2
32767
10
10.1800
20
17.0400
41
0.0180
42
0.0180
0
INSERT
8
1
2
32767
10
11.3100
20
17.8000
41
0.0180
42
0.0180
0
TRACE
8
1
10
11.3100
20
17.7910
11
11.3100
21
17.8090
12
11.3200
22
17.7910
13
11.3200
23
17.8090
0
INSERT
8
1
2
32767
10
11.3200
20
17.8000
41
0.0180
42
0.0180
0
INSERT
8
1
2
32767
10
11.9600
20
18.4200
41
0.0180
42
0.0180
0
TRACE
8
1
10
11.9600
20
18.4110
11
11.9600
21
18.4290
12
11.9700
22
18.4110
13
11.9700
23
18.4290
0
INSERT
8
1
2
32767
10
11.9700
20
18.4200
41
0.0180
42
0.0180
0
INSERT
8
1
2
32767
10
11.6100
20
18.0000
41
0.0180
42
0.0180
0
TRACE
8
1
10
11.6180
20
17.9960
11
11.6020
21
18.0040
12
11.6280
22
18.0160
13
11.6120
23
18.0240
0
INSERT
8
1
2
32767
10
11.6200
20
18.0200
41
0.0180
42
0.0180
0
INSERT
8
1
2
32767
10
11.6100
20
18.6000
41
0.0180
42
0.0180
0
TRACE
8
1
10
11.6100
20
18.5910
11
11.6100
21
18.6090
12
11.6200
22
18.5910
13
11.6200
23
18.6090
0
INSERT
8
1
2
32767
10
11.6200
20
18.6000
41
0.0180
42
0.0180
0
INSERT
8
1
2
32767
10
9.9500
20
18.2800
41
0.0180
42
0.0180
0
TRACE
8
1
10
9.9500
20
18.2710
11
9.9500
21
18.2890
12
9.9600
22
18.2710
13
9.9600
23
18.2890
0
INSERT
8
1
2
32767
10
9.9600
20
18.2800
41
0.0180
42
0.0180
0
INSERT
8
1
2
32767
10
11.9600
20
18.2200
41
0.0180
42
0.0180
0
TRACE
8
1
10
11.9600
20
18.2110
11
11.9600
21
18.2290
12
11.9700
22
18.2110
13
11.9700
23
18.2290
0
INSERT
8
1
2
32767
10
11.9700
20
18.2200
41
0.0180
42
0.0180
0
INSERT
8
1
2
32767
10
11.6100
20
17.7000
41
0.0180
42
0.0180
0
TRACE
8
1
10
11.6180
20
17.6960
11
11.6020
21
17.7040
12
11.6280
22
17.7160
13
11.6120
23
17.7240
0
INSERT
8
1
2
32767
10
11.6200
20
17.7200
41
0.0180
42
0.0180
0
INSERT
8
1
2
32767
10
10.3000
20
17.9000
41
0.0180
42
0.0180
0
TRACE
8
1
10
10.2936
20
17.8936
11
10.3064
21
17.9064
12
10.3036
22
17.8836
13
10.3164
23
17.8964
0
INSERT
8
1
2
32767
10
10.3100
20
17.8900
41
0.0180
42
0.0180
0
INSERT
8
1
2
32767
10
10.3000
20
17.9000
41
0.0180
42
0.0180
0
TRACE
8
1
10
10.3064
20
17.8936
11
10.2936
21
17.9064
12
10.6464
22
18.2336
13
10.6336
23
18.2464
0
INSERT
8
1
2
32767
10
10.6400
20
18.2400
41
0.0180
42
0.0180
0
INSERT
8
1
2
32767
10
10.6400
20
18.2400
41
0.0180
42
0.0180
0
TRACE
8
1
10
10.6400
20
18.2310
11
10.6400
21
18.2490
12
10.7200
22
18.2310
13
10.7200
23
18.2490
0
INSERT
8
1
2
32767
10
10.7200
20
18.2400
41
0.0180
42
0.0180
0
INSERT
8
1
2
32767
10
10.2600
20
18.7200
41
0.0180
42
0.0180
0
TRACE
8
1
10
10.2690
20
18.7200
11
10.2510
21
18.7200
12
10.2690
22
18.7300
13
10.2510
23
18.7300
0
INSERT
8
1
2
32767
10
10.2600
20
18.7300
41
0.0180
42
0.0180
0
INSERT
8
1
2
32767
10
11.5800
20
18.9600
41
0.0180
42
0.0180
0
TRACE
8
1
10
11.5800
20
18.9510
11
11.5800
21
18.9690
12
11.5900
22
18.9510
13
11.5900
23
18.9690
0
INSERT
8
1
2
32767
10
11.5900
20
18.9600
41
0.0180
42
0.0180
0
INSERT
8
1
2
32767
10
11.3100
20
18.0000
41
0.0180
42
0.0180
0
TRACE
8
1
10
11.3180
20
17.9960
11
11.3020
21
18.0040
12
11.3280
22
18.0160
13
11.3120
23
18.0240
0
INSERT
8
1
2
32767
10
11.3200
20
18.0200
41
0.0180
42
0.0180
0
INSERT
8
1
2
32767
10
12.5600
20
18.6200
41
0.0180
42
0.0180
0
TRACE
8
1
10
12.5600
20
18.6110
11
12.5600
21
18.6290
12
12.5700
22
18.6110
13
12.5700
23
18.6290
0
INSERT
8
1
2
32767
10
12.5700
20
18.6200
41
0.0180
42
0.0180
0
INSERT
8
1
2
32767
10
12.0400
20
19.1400
41
0.0180
42
0.0180
0
TRACE
8
1
10
12.0336
20
19.1336
11
12.0464
21
19.1464
12
12.5536
22
18.6136
13
12.5664
23
18.6264
0
INSERT
8
1
2
32767
10
12.5600
20
18.6200
41
0.0180
42
0.0180
0
INSERT
8
1
2
32767
10
12.0400
20
19.1400
41
0.0180
42
0.0180
0
TRACE
8
1
10
12.0490
20
19.1400
11
12.0310
21
19.1400
12
12.0490
22
19.1800
13
12.0310
23
19.1800
0
INSERT
8
1
2
32767
10
12.0400
20
19.1800
41
0.0180
42
0.0180
0
INSERT
8
1
2
32767
10
12.0200
20
19.2000
41
0.0180
42
0.0180
0
TRACE
8
1
10
12.0136
20
19.1936
11
12.0264
21
19.2064
12
12.0336
22
19.1736
13
12.0464
23
19.1864
0
INSERT
8
1
2
32767
10
12.0400
20
19.1800
41
0.0180
42
0.0180
0
INSERT
8
1
2
32767
10
11.8000
20
19.2000
41
0.0180
42
0.0180
0
TRACE
8
1
10
11.8000
20
19.1910
11
11.8000
21
19.2090
12
12.0200
22
19.1910
13
12.0200
23
19.2090
0
INSERT
8
1
2
32767
10
12.0200
20
19.2000
41
0.0180
42
0.0180
0
INSERT
8
1
2
32767
10
11.2900
20
18.9600
41
0.0180
42
0.0180
0
TRACE
8
1
10
11.2900
20
18.9510
11
11.2900
21
18.9690
12
11.3000
22
18.9510
13
11.3000
23
18.9690
0
INSERT
8
1
2
32767
10
11.3000
20
18.9600
41
0.0180
42
0.0180
0
INSERT
8
1
2
32767
10
10.9400
20
18.3600
41
0.0180
42
0.0180
0
TRACE
8
1
10
10.9336
20
18.3536
11
10.9464
21
18.3664
12
10.9736
22
18.3136
13
10.9864
23
18.3264
0
INSERT
8
1
2
32767
10
10.9800
20
18.3200
41
0.0180
42
0.0180
0
INSERT
8
1
2
32767
10
10.9800
20
18.3000
41
0.0180
42
0.0180
0
TRACE
8
1
10
10.9890
20
18.3000
11
10.9710
21
18.3000
12
10.9890
22
18.3200
13
10.9710
23
18.3200
0
INSERT
8
1
2
32767
10
10.9800
20
18.3200
41
0.0180
42
0.0180
0
INSERT
8
1
2
32767
10
10.9800
20
18.3000
41
0.0180
42
0.0180
0
TRACE
8
1
10
10.9736
20
18.2936
11
10.9864
21
18.3064
12
10.9836
22
18.2836
13
10.9964
23
18.2964
0
INSERT
8
1
2
32767
10
10.9900
20
18.2900
41
0.0180
42
0.0180
0
INSERT
8
1
2
32767
10
11.0900
20
18.9600
41
0.0180
42
0.0180
0
TRACE
8
1
10
11.0900
20
18.9510
11
11.0900
21
18.9690
12
11.1000
22
18.9510
13
11.1000
23
18.9690
0
INSERT
8
1
2
32767
10
11.1000
20
18.9600
41
0.0180
42
0.0180
0
INSERT
8
1
2
32767
10
11.9600
20
17.2400
41
0.0180
42
0.0180
0
TRACE
8
1
10
11.9520
20
17.2360
11
11.9680
21
17.2440
12
11.9620
22
17.2160
13
11.9780
23
17.2240
0
INSERT
8
1
2
32767
10
11.9700
20
17.2200
41
0.0180
42
0.0180
0
INSERT
8
1
2
32767
10
12.3200
20
17.9700
41
0.0180
42
0.0180
0
TRACE
8
1
10
12.3290
20
17.9700
11
12.3110
21
17.9700
12
12.3290
22
18.0200
13
12.3110
23
18.0200
0
INSERT
8
1
2
32767
10
12.3200
20
18.0200
41
0.0180
42
0.0180
0
INSERT
8
1
2
32767
10
12.3200
20
18.0200
41
0.0180
42
0.0180
0
TRACE
8
1
10
12.3200
20
18.0110
11
12.3200
21
18.0290
12
12.5500
22
18.0110
13
12.5500
23
18.0290
0
INSERT
8
1
2
32767
10
12.5500
20
18.0200
41
0.0180
42
0.0180
0
INSERT
8
1
2
32767
10
12.3200
20
17.9900
41
0.0180
42
0.0180
0
TRACE
8
1
10
12.3290
20
17.9900
11
12.3110
21
17.9900
12
12.3290
22
18.0200
13
12.3110
23
18.0200
0
INSERT
8
1
2
32767
10
12.3200
20
18.0200
41
0.0180
42
0.0180
0
INSERT
8
1
2
32767
10
11.2900
20
18.9900
41
0.0180
42
0.0180
0
TRACE
8
1
10
11.2990
20
18.9900
11
11.2810
21
18.9900
12
11.2990
22
19.1100
13
11.2810
23
19.1100
0
INSERT
8
1
2
32767
10
11.2900
20
19.1100
41
0.0180
42
0.0180
0
INSERT
8
1
2
32767
10
11.2900
20
19.1100
41
0.0180
42
0.0180
0
TRACE
8
1
10
11.2900
20
19.1010
11
11.2900
21
19.1190
12
11.8000
22
19.1010
13
11.8000
23
19.1190
0
INSERT
8
1
2
32767
10
11.8000
20
19.1100
41
0.0180
42
0.0180
0
INSERT
8
1
2
32767
10
11.8000
20
19.1100
41
0.0180
42
0.0180
0
TRACE
8
1
10
11.8090
20
19.1100
11
11.7910
21
19.1100
12
11.8090
22
19.2000
13
11.7910
23
19.2000
0
INSERT
8
1
2
32767
10
11.8000
20
19.2000
41
0.0180
42
0.0180
0
INSERT
8
1
2
32767
10
11.5900
20
18.9800
41
0.0180
42
0.0180
0
TRACE
8
1
10
11.5990
20
18.9800
11
11.5810
21
18.9800
12
11.5990
22
19.0500
13
11.5810
23
19.0500
0
INSERT
8
1
2
32767
10
11.5900
20
19.0500
41
0.0180
42
0.0180
0
INSERT
8
1
2
32767
10
11.4400
20
19.0500
41
0.0180
42
0.0180
0
TRACE
8
1
10
11.4400
20
19.0410
11
11.4400
21
19.0590
12
11.5900
22
19.0410
13
11.5900
23
19.0590
0
INSERT
8
1
2
32767
10
11.5900
20
19.0500
41
0.0180
42
0.0180
0
INSERT
8
1
2
32767
10
11.4400
20
18.8700
41
0.0180
42
0.0180
0
TRACE
8
1
10
11.4490
20
18.8700
11
11.4310
21
18.8700
12
11.4490
22
19.0500
13
11.4310
23
19.0500
0
INSERT
8
1
2
32767
10
11.4400
20
19.0500
41
0.0180
42
0.0180
0
INSERT
8
1
2
32767
10
9.7500
20
19.2400
41
0.0180
42
0.0180
0
TRACE
8
1
10
9.7500
20
19.2310
11
9.7500
21
19.2490
12
10.6000
22
19.2310
13
10.6000
23
19.2490
0
INSERT
8
1
2
32767
10
10.6000
20
19.2400
41
0.0180
42
0.0180
0
INSERT
8
1
2
32767
10
9.7500
20
19.0000
41
0.0180
42
0.0180
0
TRACE
8
1
10
9.7590
20
19.0000
11
9.7410
21
19.0000
12
9.7590
22
19.2400
13
9.7410
23
19.2400
0
INSERT
8
1
2
32767
10
9.7500
20
19.2400
41
0.0180
42
0.0180
0
INSERT
8
1
2
32767
10
9.7500
20
19.0000
41
0.0180
42
0.0180
0
TRACE
8
1
10
9.7500
20
18.9910
11
9.7500
21
19.0090
12
9.9600
22
18.9910
13
9.9600
23
19.0090
0
INSERT
8
1
2
32767
10
9.9600
20
19.0000
41
0.0180
42
0.0180
0
INSERT
8
1
2
32767
10
9.9600
20
18.9100
41
0.0180
42
0.0180
0
TRACE
8
1
10
9.9690
20
18.9100
11
9.9510
21
18.9100
12
9.9690
22
19.0000
13
9.9510
23
19.0000
0
INSERT
8
1
2
32767
10
9.9600
20
19.0000
41
0.0180
42
0.0180
0
INSERT
8
1
2
32767
10
11.3300
20
18.0000
41
0.0180
42
0.0180
0
TRACE
8
1
10
11.3300
20
17.9910
11
11.3300
21
18.0090
12
11.4800
22
17.9910
13
11.4800
23
18.0090
0
INSERT
8
1
2
32767
10
11.4800
20
18.0000
41
0.0180
42
0.0180
0
INSERT
8
1
2
32767
10
11.4800
20
17.7000
41
0.0180
42
0.0180
0
TRACE
8
1
10
11.4890
20
17.7000
11
11.4710
21
17.7000
12
11.4890
22
18.0000
13
11.4710
23
18.0000
0
INSERT
8
1
2
32767
10
11.4800
20
18.0000
41
0.0180
42
0.0180
0
INSERT
8
1
2
32767
10
11.3300
20
17.7000
41
0.0180
42
0.0180
0
TRACE
8
1
10
11.3300
20
17.6910
11
11.3300
21
17.7090
12
11.4800
22
17.6910
13
11.4800
23
17.7090
0
INSERT
8
1
2
32767
10
11.4800
20
17.7000
41
0.0180
42
0.0180
0
INSERT
8
1
2
32767
10
11.3000
20
17.9100
41
0.0180
42
0.0180
0
TRACE
8
1
10
11.3000
20
17.9010
11
11.3000
21
17.9190
12
11.4200
22
17.9010
13
11.4200
23
17.9190
0
INSERT
8
1
2
32767
10
11.4200
20
17.9100
41
0.0180
42
0.0180
0
INSERT
8
1
2
32767
10
11.4200
20
17.7500
41
0.0180
42
0.0180
0
TRACE
8
1
10
11.4290
20
17.7500
11
11.4110
21
17.7500
12
11.4290
22
17.9100
13
11.4110
23
17.9100
0
INSERT
8
1
2
32767
10
11.4200
20
17.9100
41
0.0180
42
0.0180
0
INSERT
8
1
2
32767
10
11.2300
20
17.7500
41
0.0180
42
0.0180
0
TRACE
8
1
10
11.2300
20
17.7410
11
11.2300
21
17.7590
12
11.4200
22
17.7410
13
11.4200
23
17.7590
0
INSERT
8
1
2
32767
10
11.4200
20
17.7500
41
0.0180
42
0.0180
0
INSERT
8
1
2
32767
10
10.9500
20
17.2600
41
0.0180
42
0.0180
0
TRACE
8
1
10
10.9590
20
17.2600
11
10.9410
21
17.2600
12
10.9590
22
17.4400
13
10.9410
23
17.4400
0
INSERT
8
1
2
32767
10
10.9500
20
17.4400
41
0.0180
42
0.0180
0
INSERT
8
1
2
32767
10
10.8600
20
17.3400
41
0.0180
42
0.0180
0
TRACE
8
1
10
10.8690
20
17.3400
11
10.8510
21
17.3400
12
10.8690
22
17.8100
13
10.8510
23
17.8100
0
INSERT
8
1
2
32767
10
10.8600
20
17.8100
41
0.0180
42
0.0180
0
INSERT
8
1
2
32767
10
10.8600
20
17.8100
41
0.0180
42
0.0180
0
TRACE
8
1
10
10.8600
20
17.8010
11
10.8600
21
17.8190
12
11.3000
22
17.8010
13
11.3000
23
17.8190
0
INSERT
8
1
2
32767
10
11.3000
20
17.8100
41
0.0180
42
0.0180
0
INSERT
8
1
2
32767
10
10.9500
20
17.7500
41
0.0180
42
0.0180
0
TRACE
8
1
10
10.9500
20
17.7410
11
10.9500
21
17.7590
12
11.2500
22
17.7410
13
11.2500
23
17.7590
0
INSERT
8
1
2
32767
10
11.2500
20
17.7500
41
0.0180
42
0.0180
0
INSERT
8
1
2
32767
10
10.9500
20
17.4200
41
0.0180
42
0.0180
0
TRACE
8
1
10
10.9590
20
17.4200
11
10.9410
21
17.4200
12
10.9590
22
17.7500
13
10.9410
23
17.7500
0
INSERT
8
1
2
32767
10
10.9500
20
17.7500
41
0.0180
42
0.0180
0
INSERT
8
1
2
32767
10
11.1600
20
18.4000
41
0.0180
42
0.0180
0
TRACE
8
1
10
11.1600
20
18.3910
11
11.1600
21
18.4090
12
11.3100
22
18.3910
13
11.3100
23
18.4090
0
INSERT
8
1
2
32767
10
11.3100
20
18.4000
41
0.0180
42
0.0180
0
INSERT
8
1
2
32767
10
11.5400
20
18.7200
41
0.0180
42
0.0180
0
TRACE
8
1
10
11.5400
20
18.7110
11
11.5400
21
18.7290
12
11.7900
22
18.7110
13
11.7900
23
18.7290
0
INSERT
8
1
2
32767
10
11.7900
20
18.7200
41
0.0180
42
0.0180
0
INSERT
8
1
2
32767
10
11.5400
20
17.6900
41
0.0180
42
0.0180
0
TRACE
8
1
10
11.5400
20
17.6810
11
11.5400
21
17.6990
12
11.5900
22
17.6810
13
11.5900
23
17.6990
0
INSERT
8
1
2
32767
10
11.5900
20
17.6900
41
0.0180
42
0.0180
0
INSERT
8
1
2
32767
10
11.9700
20
18.4200
41
0.0180
42
0.0180
0
TRACE
8
1
10
11.9700
20
18.4110
11
11.9700
21
18.4290
12
12.0400
22
18.4110
13
12.0400
23
18.4290
0
INSERT
8
1
2
32767
10
12.0400
20
18.4200
41
0.0180
42
0.0180
0
INSERT
8
1
2
32767
10
11.6100
20
17.9000
41
0.0180
42
0.0180
0
TRACE
8
1
10
11.6100
20
17.8910
11
11.6100
21
17.9090
12
11.7100
22
17.8910
13
11.7100
23
17.9090
0
INSERT
8
1
2
32767
10
11.7100
20
17.9000
41
0.0180
42
0.0180
0
INSERT
8
1
2
32767
10
11.7100
20
17.9000
41
0.0180
42
0.0180
0
TRACE
8
1
10
11.7190
20
17.9000
11
11.7010
21
17.9000
12
11.7190
22
18.0400
13
11.7010
23
18.0400
0
INSERT
8
1
2
32767
10
11.7100
20
18.0400
41
0.0180
42
0.0180
0
INSERT
8
1
2
32767
10
10.9800
20
18.9900
41
0.0180
42
0.0180
0
TRACE
8
1
10
10.9890
20
18.9900
11
10.9710
21
18.9900
12
10.9890
22
19.1100
13
10.9710
23
19.1100
0
INSERT
8
1
2
32767
10
10.9800
20
19.1100
41
0.0180
42
0.0180
0
INSERT
8
1
2
32767
10
12.2900
20
18.1200
41
0.0180
42
0.0180
0
TRACE
8
1
10
12.2990
20
18.1200
11
12.2810
21
18.1200
12
12.2990
22
18.1700
13
12.2810
23
18.1700
0
INSERT
8
1
2
32767
10
12.2900
20
18.1700
41
0.0180
42
0.0180
0
INSERT
8
1
2
32767
10
11.9800
20
18.1200
41
0.0180
42
0.0180
0
TRACE
8
1
10
11.9800
20
18.1110
11
11.9800
21
18.1290
12
12.2900
22
18.1110
13
12.2900
23
18.1290
0
INSERT
8
1
2
32767
10
12.2900
20
18.1200
41
0.0180
42
0.0180
0
INSERT
8
1
2
32767
10
10.7200
20
17.4400
41
0.0180
42
0.0180
0
TRACE
8
1
10
10.7290
20
17.4400
11
10.7110
21
17.4400
12
10.7290
22
17.5200
13
10.7110
23
17.5200
0
INSERT
8
1
2
32767
10
10.7200
20
17.5200
41
0.0180
42
0.0180
0
INSERT
8
1
2
32767
10
10.4500
20
18.1400
41
0.0180
42
0.0180
0
TRACE
8
1
10
10.4500
20
18.1310
11
10.4500
21
18.1490
12
10.4800
22
18.1310
13
10.4800
23
18.1490
0
INSERT
8
1
2
32767
10
10.4800
20
18.1400
41
0.0180
42
0.0180
0
INSERT
8
1
2
32767
10
10.4800
20
18.1400
41
0.0180
42
0.0180
0
TRACE
8
1
10
10.4864
20
18.1336
11
10.4736
21
18.1464
12
10.6364
22
18.2836
13
10.6236
23
18.2964
0
INSERT
8
1
2
32767
10
10.6300
20
18.2900
41
0.0180
42
0.0180
0
INSERT
8
1
2
32767
10
10.6300
20
18.2900
41
0.0180
42
0.0180
0
TRACE
8
1
10
10.6300
20
18.2810
11
10.6300
21
18.2990
12
10.7000
22
18.2810
13
10.7000
23
18.2990
0
INSERT
8
1
2
32767
10
10.7000
20
18.2900
41
0.0180
42
0.0180
0
INSERT
8
1
2
32767
10
10.6900
20
18.2900
41
0.0180
42
0.0180
0
TRACE
8
1
10
10.6900
20
18.2810
11
10.6900
21
18.2990
12
10.7000
22
18.2810
13
10.7000
23
18.2990
0
INSERT
8
1
2
32767
10
10.7000
20
18.2900
41
0.0180
42
0.0180
0
INSERT
8
1
2
32767
10
10.8000
20
17.1400
41
0.0180
42
0.0180
0
TRACE
8
1
10
10.8000
20
17.1310
11
10.8000
21
17.1490
12
10.8200
22
17.1310
13
10.8200
23
17.1490
0
INSERT
8
1
2
32767
10
10.8200
20
17.1400
41
0.0180
42
0.0180
0
INSERT
8
1
2
32767
10
10.8300
20
17.1400
41
0.0180
42
0.0180
0
TRACE
8
1
10
10.8364
20
17.1336
11
10.8236
21
17.1464
12
10.9564
22
17.2536
13
10.9436
23
17.2664
0
INSERT
8
1
2
32767
10
10.9500
20
17.2600
41
0.0180
42
0.0180
0
INSERT
8
1
2
32767
10
10.5700
20
17.0200
41
0.0180
42
0.0180
0
TRACE
8
1
10
10.5700
20
17.0110
11
10.5700
21
17.0290
12
10.9500
22
17.0110
13
10.9500
23
17.0290
0
INSERT
8
1
2
32767
10
10.9500
20
17.0200
41
0.0180
42
0.0180
0
INSERT
8
1
2
32767
10
10.9500
20
17.0200
41
0.0180
42
0.0180
0
TRACE
8
1
10
10.9564
20
17.0136
11
10.9436
21
17.0264
12
11.0764
22
17.1336
13
11.0636
23
17.1464
0
INSERT
8
1
2
32767
10
11.0700
20
17.1400
41
0.0180
42
0.0180
0
INSERT
8
1
2
32767
10
11.0700
20
17.1400
41
0.0180
42
0.0180
0
TRACE
8
1
10
11.0764
20
17.1336
11
11.0636
21
17.1464
12
11.2264
22
17.2836
13
11.2136
23
17.2964
0
INSERT
8
1
2
32767
10
11.2200
20
17.2900
41
0.0180
42
0.0180
0
INSERT
8
1
2
32767
10
11.2200
20
17.2900
41
0.0180
42
0.0180
0
TRACE
8
1
10
11.2290
20
17.2900
11
11.2110
21
17.2900
12
11.2290
22
17.4200
13
11.2110
23
17.4200
0
INSERT
8
1
2
32767
10
11.2200
20
17.4200
41
0.0180
42
0.0180
0
INSERT
8
1
2
32767
10
10.1800
20
17.0100
41
0.0180
42
0.0180
0
TRACE
8
1
10
10.1890
20
17.0100
11
10.1710
21
17.0100
12
10.1890
22
17.0300
13
10.1710
23
17.0300
0
INSERT
8
1
2
32767
10
10.1800
20
17.0300
41
0.0180
42
0.0180
0
INSERT
8
1
2
32767
10
10.1800
20
17.0100
41
0.0180
42
0.0180
0
TRACE
8
1
10
10.1736
20
17.0036
11
10.1864
21
17.0164
12
10.2136
22
16.9636
13
10.2264
23
16.9764
0
INSERT
8
1
2
32767
10
10.2200
20
16.9700
41
0.0180
42
0.0180
0
INSERT
8
1
2
32767
10
10.2200
20
16.9700
41
0.0180
42
0.0180
0
TRACE
8
1
10
10.2200
20
16.9610
11
10.2200
21
16.9790
12
10.9900
22
16.9610
13
10.9900
23
16.9790
0
INSERT
8
1
2
32767
10
10.9900
20
16.9700
41
0.0180
42
0.0180
0
INSERT
8
1
2
32767
10
10.9900
20
16.9700
41
0.0180
42
0.0180
0
TRACE
8
1
10
10.9900
20
16.9610
11
10.9900
21
16.9790
12
11.0100
22
16.9610
13
11.0100
23
16.9790
0
INSERT
8
1
2
32767
10
11.0100
20
16.9700
41
0.0180
42
0.0180
0
INSERT
8
1
2
32767
10
10.4500
20
18.1300
41
0.0180
42
0.0180
0
TRACE
8
1
10
10.4590
20
18.1300
11
10.4410
21
18.1300
12
10.4590
22
18.1400
13
10.4410
23
18.1400
0
INSERT
8
1
2
32767
10
10.4500
20
18.1400
41
0.0180
42
0.0180
0
INSERT
8
1
2
32767
10
10.2100
20
17.8900
41
0.0180
42
0.0180
0
TRACE
8
1
10
10.2164
20
17.8836
11
10.2036
21
17.8964
12
10.4564
22
18.1236
13
10.4436
23
18.1364
0
INSERT
8
1
2
32767
10
10.4500
20
18.1300
41
0.0180
42
0.0180
0
INSERT
8
1
2
32767
10
10.2100
20
17.4100
41
0.0180
42
0.0180
0
TRACE
8
1
10
10.2190
20
17.4100
11
10.2010
21
17.4100
12
10.2190
22
17.8900
13
10.2010
23
17.8900
0
INSERT
8
1
2
32767
10
10.2100
20
17.8900
41
0.0180
42
0.0180
0
INSERT
8
1
2
32767
10
11.1900
20
18.8900
41
0.0180
42
0.0180
0
TRACE
8
1
10
11.1990
20
18.8900
11
11.1810
21
18.8900
12
11.1990
22
18.9600
13
11.1810
23
18.9600
0
INSERT
8
1
2
32767
10
11.1900
20
18.9600
41
0.0180
42
0.0180
0
INSERT
8
1
2
32767
10
11.1900
20
18.8900
41
0.0180
42
0.0180
0
TRACE
8
1
10
11.1900
20
18.8810
11
11.1900
21
18.8990
12
11.3900
22
18.8810
13
11.3900
23
18.8990
0
INSERT
8
1
2
32767
10
11.3900
20
18.8900
41
0.0180
42
0.0180
0
INSERT
8
1
2
32767
10
11.3900
20
18.8900
41
0.0180
42
0.0180
0
TRACE
8
1
10
11.3990
20
18.8900
11
11.3810
21
18.8900
12
11.3990
22
18.9600
13
11.3810
23
18.9600
0
INSERT
8
1
2
32767
10
11.3900
20
18.9600
41
0.0180
42
0.0180
0
INSERT
8
1
2
32767
10
10.9200
20
19.2300
41
0.0180
42
0.0180
0
TRACE
8
1
10
10.9136
20
19.2236
11
10.9264
21
19.2364
12
11.0836
22
19.0536
13
11.0964
23
19.0664
0
INSERT
8
1
2
32767
10
11.0900
20
19.0600
41
0.0180
42
0.0180
0
INSERT
8
1
2
32767
10
11.6100
20
18.6000
41
0.0180
42
0.0180
0
TRACE
8
1
10
11.6100
20
18.5910
11
11.6100
21
18.6090
12
11.6800
22
18.5910
13
11.6800
23
18.6090
0
INSERT
8
1
2
32767
10
11.6800
20
18.6000
41
0.0180
42
0.0180
0
INSERT
8
1
2
32767
10
11.7500
20
17.9500
41
0.0180
42
0.0180
0
TRACE
8
1
10
11.7590
20
17.9500
11
11.7410
21
17.9500
12
11.7590
22
17.9700
13
11.7410
23
17.9700
0
INSERT
8
1
2
32767
10
11.7500
20
17.9700
41
0.0180
42
0.0180
0
INSERT
8
1
2
32767
10
10.0000
20
19.0200
41
0.0180
42
0.0180
0
TRACE
8
1
10
10.0000
20
19.0110
11
10.0000
21
19.0290
12
10.2100
22
19.0110
13
10.2100
23
19.0290
0
INSERT
8
1
2
32767
10
10.2100
20
19.0200
41
0.0180
42
0.0180
0
INSERT
8
1
2
32767
10
9.9600
20
18.9100
41
0.0180
42
0.0180
0
TRACE
8
1
10
9.9600
20
18.9010
11
9.9600
21
18.9190
12
10.2000
22
18.9010
13
10.2000
23
18.9190
0
INSERT
8
1
2
32767
10
10.2000
20
18.9100
41
0.0180
42
0.0180
0
INSERT
8
1
2
32767
10
10.8600
20
18.4400
41
0.0180
42
0.0180
0
TRACE
8
1
10
10.8536
20
18.4336
11
10.8664
21
18.4464
12
10.9336
22
18.3536
13
10.9464
23
18.3664
0
INSERT
8
1
2
32767
10
10.9400
20
18.3600
41
0.0180
42
0.0180
0
INSERT
8
1
2
32767
10
10.8600
20
18.4400
41
0.0180
42
0.0180
0
TRACE
8
1
10
10.8690
20
18.4400
11
10.8510
21
18.4400
12
10.8690
22
18.5900
13
10.8510
23
18.5900
0
INSERT
8
1
2
32767
10
10.8600
20
18.5900
41
0.0180
42
0.0180
0
INSERT
8
1
2
32767
10
10.7200
20
17.5200
41
0.0180
42
0.0180
0
TRACE
8
1
10
10.7290
20
17.5200
11
10.7110
21
17.5200
12
10.7290
22
17.5400
13
10.7110
23
17.5400
0
INSERT
8
1
2
32767
10
10.7200
20
17.5400
41
0.0180
42
0.0180
0
INSERT
8
1
2
32767
10
10.4500
20
17.5400
41
0.0180
42
0.0180
0
TRACE
8
1
10
10.4500
20
17.5310
11
10.4500
21
17.5490
12
10.7200
22
17.5310
13
10.7200
23
17.5490
0
INSERT
8
1
2
32767
10
10.7200
20
17.5400
41
0.0180
42
0.0180
0
INSERT
8
1
2
32767
10
10.4500
20
17.5400
41
0.0180
42
0.0180
0
TRACE
8
1
10
10.4590
20
17.5400
11
10.4410
21
17.5400
12
10.4590
22
17.6400
13
10.4410
23
17.6400
0
INSERT
8
1
2
32767
10
10.4500
20
17.6400
41
0.0180
42
0.0180
0
INSERT
8
1
2
32767
10
10.4500
20
17.6400
41
0.0180
42
0.0180
0
TRACE
8
1
10
10.4590
20
17.6400
11
10.4410
21
17.6400
12
10.4590
22
17.6500
13
10.4410
23
17.6500
0
INSERT
8
1
2
32767
10
10.4500
20
17.6500
41
0.0180
42
0.0180
0
INSERT
8
1
2
32767
10
10.4500
20
17.6500
41
0.0180
42
0.0180
0
TRACE
8
1
10
10.4564
20
17.6436
11
10.4436
21
17.6564
12
10.5564
22
17.7436
13
10.5436
23
17.7564
0
INSERT
8
1
2
32767
10
10.5500
20
17.7500
41
0.0180
42
0.0180
0
INSERT
8
1
2
32767
10
10.5500
20
17.7500
41
0.0180
42
0.0180
0
TRACE
8
1
10
10.5590
20
17.7500
11
10.5410
21
17.7500
12
10.5590
22
18.0300
13
10.5410
23
18.0300
0
INSERT
8
1
2
32767
10
10.5500
20
18.0300
41
0.0180
42
0.0180
0
INSERT
8
1
2
32767
10
10.5500
20
18.0300
41
0.0180
42
0.0180
0
TRACE
8
1
10
10.5590
20
18.0300
11
10.5410
21
18.0300
12
10.5590
22
18.0500
13
10.5410
23
18.0500
0
INSERT
8
1
2
32767
10
10.5500
20
18.0500
41
0.0180
42
0.0180
0
INSERT
8
1
2
32767
10
10.5500
20
18.0500
41
0.0180
42
0.0180
0
TRACE
8
1
10
10.5564
20
18.0436
11
10.5436
21
18.0564
12
10.6964
22
18.1836
13
10.6836
23
18.1964
0
INSERT
8
1
2
32767
10
10.6900
20
18.1900
41
0.0180
42
0.0180
0
INSERT
8
1
2
32767
10
11.1600
20
18.3000
41
0.0180
42
0.0180
0
TRACE
8
1
10
11.1600
20
18.2910
11
11.1600
21
18.3090
12
11.3000
22
18.2910
13
11.3000
23
18.3090
0
INSERT
8
1
2
32767
10
11.3000
20
18.3000
41
0.0180
42
0.0180
0
INSERT
8
1
2
32767
10
11.1600
20
18.2000
41
0.0180
42
0.0180
0
TRACE
8
1
10
11.1600
20
18.1910
11
11.1600
21
18.2090
12
11.3000
22
18.1910
13
11.3000
23
18.2090
0
INSERT
8
1
2
32767
10
11.3000
20
18.2000
41
0.0180
42
0.0180
0
INSERT
8
1
2
32767
10
11.1600
20
18.1000
41
0.0180
42
0.0180
0
TRACE
8
1
10
11.1600
20
18.0910
11
11.1600
21
18.1090
12
11.3100
22
18.0910
13
11.3100
23
18.1090
0
INSERT
8
1
2
32767
10
11.3100
20
18.1000
41
0.0180
42
0.0180
0
INSERT
8
1
2
32767
10
11.7100
20
18.1800
41
0.0180
42
0.0180
0
TRACE
8
1
10
11.7190
20
18.1800
11
11.7010
21
18.1800
12
11.7190
22
18.2200
13
11.7010
23
18.2200
0
INSERT
8
1
2
32767
10
11.7100
20
18.2200
41
0.0180
42
0.0180
0
INSERT
8
1
2
32767
10
11.7300
20
17.5700
41
0.0180
42
0.0180
0
TRACE
8
1
10
11.7364
20
17.5636
11
11.7236
21
17.5764
12
11.7464
22
17.5736
13
11.7336
23
17.5864
0
INSERT
8
1
2
32767
10
11.7400
20
17.5800
41
0.0180
42
0.0180
0
INSERT
8
1
2
32767
10
11.5100
20
18.6500
41
0.0180
42
0.0180
0
TRACE
8
1
10
11.5190
20
18.6500
11
11.5010
21
18.6500
12
11.5190
22
18.8800
13
11.5010
23
18.8800
0
INSERT
8
1
2
32767
10
11.5100
20
18.8800
41
0.0180
42
0.0180
0
INSERT
8
1
2
32767
10
11.4000
20
18.5400
41
0.0180
42
0.0180
0
TRACE
8
1
10
11.4064
20
18.5336
11
11.3936
21
18.5464
12
11.5164
22
18.6436
13
11.5036
23
18.6564
0
INSERT
8
1
2
32767
10
11.5100
20
18.6500
41
0.0180
42
0.0180
0
INSERT
8
1
2
32767
10
11.5100
20
18.8800
41
0.0180
42
0.0180
0
TRACE
8
1
10
11.5164
20
18.8736
11
11.5036
21
18.8864
12
11.5964
22
18.9536
13
11.5836
23
18.9664
0
INSERT
8
1
2
32767
10
11.5900
20
18.9600
41
0.0180
42
0.0180
0
INSERT
8
1
2
32767
10
11.5400
20
18.6400
41
0.0180
42
0.0180
0
TRACE
8
1
10
11.5490
20
18.6400
11
11.5310
21
18.6400
12
11.5490
22
18.7200
13
11.5310
23
18.7200
0
INSERT
8
1
2
32767
10
11.5400
20
18.7200
41
0.0180
42
0.0180
0
INSERT
8
1
2
32767
10
11.4300
20
18.5300
41
0.0180
42
0.0180
0
TRACE
8
1
10
11.4364
20
18.5236
11
11.4236
21
18.5364
12
11.5464
22
18.6336
13
11.5336
23
18.6464
0
INSERT
8
1
2
32767
10
11.5400
20
18.6400
41
0.0180
42
0.0180
0
INSERT
8
1
2
32767
10
11.4700
20
18.5300
41
0.0180
42
0.0180
0
TRACE
8
1
10
11.4764
20
18.5236
11
11.4636
21
18.5364
12
11.5964
22
18.6436
13
11.5836
23
18.6564
0
INSERT
8
1
2
32767
10
11.5900
20
18.6500
41
0.0180
42
0.0180
0
INSERT
8
1
2
32767
10
11.4600
20
18.5200
41
0.0180
42
0.0180
0
TRACE
8
1
10
11.4664
20
18.5136
11
11.4536
21
18.5264
12
11.4764
22
18.5236
13
11.4636
23
18.5364
0
INSERT
8
1
2
32767
10
11.4700
20
18.5300
41
0.0180
42
0.0180
0
INSERT
8
1
2
32767
10
11.4600
20
18.1500
41
0.0180
42
0.0180
0
TRACE
8
1
10
11.4690
20
18.1500
11
11.4510
21
18.1500
12
11.4690
22
18.5200
13
11.4510
23
18.5200
0
INSERT
8
1
2
32767
10
11.4600
20
18.5200
41
0.0180
42
0.0180
0
INSERT
8
1
2
32767
10
11.5700
20
18.6300
41
0.0180
42
0.0180
0
TRACE
8
1
10
11.5764
20
18.6236
11
11.5636
21
18.6364
12
11.6064
22
18.6536
13
11.5936
23
18.6664
0
INSERT
8
1
2
32767
10
11.6000
20
18.6600
41
0.0180
42
0.0180
0
INSERT
8
1
2
32767
10
11.6000
20
18.2000
41
0.0180
42
0.0180
0
TRACE
8
1
10
11.6000
20
18.1910
11
11.6000
21
18.2090
12
11.6100
22
18.1910
13
11.6100
23
18.2090
0
INSERT
8
1
2
32767
10
11.6100
20
18.2000
41
0.0180
42
0.0180
0
INSERT
8
1
2
32767
10
11.7100
20
17.5500
41
0.0180
42
0.0180
0
TRACE
8
1
10
11.7164
20
17.5436
11
11.7036
21
17.5564
12
11.7364
22
17.5636
13
11.7236
23
17.5764
0
INSERT
8
1
2
32767
10
11.7300
20
17.5700
41
0.0180
42
0.0180
0
INSERT
8
1
2
32767
10
11.7100
20
17.5200
41
0.0180
42
0.0180
0
TRACE
8
1
10
11.7190
20
17.5200
11
11.7010
21
17.5200
12
11.7190
22
17.5500
13
11.7010
23
17.5500
0
INSERT
8
1
2
32767
10
11.7100
20
17.5500
41
0.0180
42
0.0180
0
INSERT
8
1
2
32767
10
11.7100
20
17.4300
41
0.0180
42
0.0180
0
TRACE
8
1
10
11.7190
20
17.4300
11
11.7010
21
17.4300
12
11.7190
22
17.5400
13
11.7010
23
17.5400
0
INSERT
8
1
2
32767
10
11.7100
20
17.5400
41
0.0180
42
0.0180
0
INSERT
8
1
2
32767
10
11.8300
20
17.2700
41
0.0180
42
0.0180
0
TRACE
8
1
10
11.8390
20
17.2700
11
11.8210
21
17.2700
12
11.8390
22
17.4000
13
11.8210
23
17.4000
0
INSERT
8
1
2
32767
10
11.8300
20
17.4000
41
0.0180
42
0.0180
0
INSERT
8
1
2
32767
10
11.8300
20
17.2700
41
0.0180
42
0.0180
0
TRACE
8
1
10
11.8300
20
17.2610
11
11.8300
21
17.2790
12
12.2800
22
17.2610
13
12.2800
23
17.2790
0
INSERT
8
1
2
32767
10
12.2800
20
17.2700
41
0.0180
42
0.0180
0
INSERT
8
1
2
32767
10
11.9000
20
17.4700
41
0.0180
42
0.0180
0
TRACE
8
1
10
11.9090
20
17.4700
11
11.8910
21
17.4700
12
11.9090
22
17.5700
13
11.8910
23
17.5700
0
INSERT
8
1
2
32767
10
11.9000
20
17.5700
41
0.0180
42
0.0180
0
INSERT
8
1
2
32767
10
11.7800
20
17.4700
41
0.0180
42
0.0180
0
TRACE
8
1
10
11.7800
20
17.4610
11
11.7800
21
17.4790
12
11.9000
22
17.4610
13
11.9000
23
17.4790
0
INSERT
8
1
2
32767
10
11.9000
20
17.4700
41
0.0180
42
0.0180
0
INSERT
8
1
2
32767
10
11.7700
20
17.4700
41
0.0180
42
0.0180
0
TRACE
8
1
10
11.7700
20
17.4610
11
11.7700
21
17.4790
12
11.7800
22
17.4610
13
11.7800
23
17.4790
0
INSERT
8
1
2
32767
10
11.7800
20
17.4700
41
0.0180
42
0.0180
0
INSERT
8
1
2
32767
10
11.7700
20
17.3900
41
0.0180
42
0.0180
0
TRACE
8
1
10
11.7790
20
17.3900
11
11.7610
21
17.3900
12
11.7790
22
17.4700
13
11.7610
23
17.4700
0
INSERT
8
1
2
32767
10
11.7700
20
17.4700
41
0.0180
42
0.0180
0
INSERT
8
1
2
32767
10
11.7800
20
17.5300
41
0.0180
42
0.0180
0
TRACE
8
1
10
11.7864
20
17.5236
11
11.7736
21
17.5364
12
11.9764
22
17.7136
13
11.9636
23
17.7264
0
INSERT
8
1
2
32767
10
11.9700
20
17.7200
41
0.0180
42
0.0180
0
INSERT
8
1
2
32767
10
11.7700
20
17.3500
41
0.0180
42
0.0180
0
TRACE
8
1
10
11.7790
20
17.3500
11
11.7610
21
17.3500
12
11.7790
22
17.3900
13
11.7610
23
17.3900
0
INSERT
8
1
2
32767
10
11.7700
20
17.3900
41
0.0180
42
0.0180
0
INSERT
8
1
2
32767
10
11.1000
20
16.9300
41
0.0180
42
0.0180
0
TRACE
8
1
10
11.1064
20
16.9236
11
11.0936
21
16.9364
12
11.4564
22
17.2736
13
11.4436
23
17.2864
0
INSERT
8
1
2
32767
10
11.4500
20
17.2800
41
0.0180
42
0.0180
0
INSERT
8
1
2
32767
10
11.5200
20
17.3500
41
0.0180
42
0.0180
0
TRACE
8
1
10
11.5200
20
17.3410
11
11.5200
21
17.3590
12
11.7700
22
17.3410
13
11.7700
23
17.3590
0
INSERT
8
1
2
32767
10
11.7700
20
17.3500
41
0.0180
42
0.0180
0
INSERT
8
1
2
32767
10
11.4400
20
17.2700
41
0.0180
42
0.0180
0
TRACE
8
1
10
11.4464
20
17.2636
11
11.4336
21
17.2764
12
11.5264
22
17.3436
13
11.5136
23
17.3564
0
INSERT
8
1
2
32767
10
11.5200
20
17.3500
41
0.0180
42
0.0180
0
INSERT
8
1
2
32767
10
9.8400
20
17.8900
41
0.0180
42
0.0180
0
TRACE
8
1
10
9.8490
20
17.8900
11
9.8310
21
17.8900
12
9.8490
22
17.9400
13
9.8310
23
17.9400
0
INSERT
8
1
2
32767
10
9.8400
20
17.9400
41
0.0180
42
0.0180
0
INSERT
8
1
2
32767
10
9.8100
20
17.9200
41
0.0180
42
0.0180
0
TRACE
8
1
10
9.8100
20
17.9110
11
9.8100
21
17.9290
12
9.8700
22
17.9110
13
9.8700
23
17.9290
0
INSERT
8
1
2
32767
10
9.8700
20
17.9200
41
0.0180
42
0.0180
0
INSERT
8
1
2
32767
10
9.8400
20
17.9400
41
0.0180
42
0.0180
0
TRACE
8
1
10
9.8490
20
17.9400
11
9.8310
21
17.9400
12
9.8490
22
17.9500
13
9.8310
23
17.9500
0
INSERT
8
1
2
32767
10
9.8400
20
17.9500
41
0.0180
42
0.0180
0
INSERT
8
1
2
32767
10
10.7400
20
17.1700
41
0.0180
42
0.0180
0
TRACE
8
1
10
10.7490
20
17.1700
11
10.7310
21
17.1700
12
10.7490
22
17.2200
13
10.7310
23
17.2200
0
INSERT
8
1
2
32767
10
10.7400
20
17.2200
41
0.0180
42
0.0180
0
INSERT
8
1
2
32767
10
10.7100
20
17.2000
41
0.0180
42
0.0180
0
TRACE
8
1
10
10.7100
20
17.1910
11
10.7100
21
17.2090
12
10.7700
22
17.1910
13
10.7700
23
17.2090
0
INSERT
8
1
2
32767
10
10.7700
20
17.2000
41
0.0180
42
0.0180
0
INSERT
8
1
2
32767
10
10.7400
20
17.2200
41
0.0180
42
0.0180
0
TRACE
8
1
10
10.7490
20
17.2200
11
10.7310
21
17.2200
12
10.7490
22
17.2300
13
10.7310
23
17.2300
0
INSERT
8
1
2
32767
10
10.7400
20
17.2300
41
0.0180
42
0.0180
0
INSERT
8
1
2
32767
10
11.2200
20
17.4200
41
0.0180
42
0.0180
0
TRACE
8
1
10
11.2290
20
17.4200
11
11.2110
21
17.4200
12
11.2290
22
17.6100
13
11.2110
23
17.6100
0
INSERT
8
1
2
32767
10
11.2200
20
17.6100
41
0.0180
42
0.0180
0
INSERT
8
1
2
32767
10
11.2200
20
17.6100
41
0.0180
42
0.0180
0
TRACE
8
1
10
11.2264
20
17.6036
11
11.2136
21
17.6164
12
11.3164
22
17.6936
13
11.3036
23
17.7064
0
INSERT
8
1
2
32767
10
11.3100
20
17.7000
41
0.0180
42
0.0180
0
INSERT
8
1
2
32767
10
11.4800
20
17.6400
41
0.0180
42
0.0180
0
TRACE
8
1
10
11.4890
20
17.6400
11
11.4710
21
17.6400
12
11.4890
22
17.7000
13
11.4710
23
17.7000
0
INSERT
8
1
2
32767
10
11.4800
20
17.7000
41
0.0180
42
0.0180
0
INSERT
8
1
2
32767
10
9.8400
20
18.5400
41
0.0180
42
0.0180
0
TRACE
8
1
10
9.8400
20
18.5310
11
9.8400
21
18.5490
12
9.9100
22
18.5310
13
9.9100
23
18.5490
0
INSERT
8
1
2
32767
10
9.9100
20
18.5400
41
0.0180
42
0.0180
0
INSERT
8
1
2
32767
10
10.1000
20
18.5400
41
0.0180
42
0.0180
0
TRACE
8
1
10
10.1000
20
18.5310
11
10.1000
21
18.5490
12
10.1700
22
18.5310
13
10.1700
23
18.5490
0
INSERT
8
1
2
32767
10
10.1700
20
18.5400
41
0.0180
42
0.0180
0
INSERT
8
1
2
32767
10
10.1300
20
18.5000
41
0.0180
42
0.0180
0
TRACE
8
1
10
10.1390
20
18.5000
11
10.1210
21
18.5000
12
10.1390
22
18.5800
13
10.1210
23
18.5800
0
INSERT
8
1
2
32767
10
10.1300
20
18.5800
41
0.0180
42
0.0180
0
INSERT
8
1
2
32767
10
10.0900
20
18.5400
41
0.0180
42
0.0180
0
TRACE
8
1
10
10.0900
20
18.5310
11
10.0900
21
18.5490
12
10.1000
22
18.5310
13
10.1000
23
18.5490
0
INSERT
8
1
2
32767
10
10.1000
20
18.5400
41
0.0180
42
0.0180
0
INSERT
8
1
2
32767
10
11.0900
20
17.4200
41
0.0180
42
0.0180
0
TRACE
8
1
10
11.0900
20
17.4110
11
11.0900
21
17.4290
12
11.1600
22
17.4110
13
11.1600
23
17.4290
0
INSERT
8
1
2
32767
10
11.1600
20
17.4200
41
0.0180
42
0.0180
0
INSERT
8
1
2
32767
10
11.1200
20
17.3900
41
0.0180
42
0.0180
0
TRACE
8
1
10
11.1290
20
17.3900
11
11.1110
21
17.3900
12
11.1290
22
17.4600
13
11.1110
23
17.4600
0
INSERT
8
1
2
32767
10
11.1200
20
17.4600
41
0.0180
42
0.0180
0
INSERT
8
1
2
32767
10
11.1200
20
17.3800
41
0.0180
42
0.0180
0
TRACE
8
1
10
11.1290
20
17.3800
11
11.1110
21
17.3800
12
11.1290
22
17.3900
13
11.1110
23
17.3900
0
INSERT
8
1
2
32767
10
11.1200
20
17.3900
41
0.0180
42
0.0180
0
INSERT
8
1
2
32767
10
11.0800
20
17.4200
41
0.0180
42
0.0180
0
TRACE
8
1
10
11.0800
20
17.4110
11
11.0800
21
17.4290
12
11.0900
22
17.4110
13
11.0900
23
17.4290
0
INSERT
8
1
2
32767
10
11.0900
20
17.4200
41
0.0180
42
0.0180
0
INSERT
8
1
2
32767
10
10.8600
20
17.2800
41
0.0180
42
0.0180
0
TRACE
8
1
10
10.8690
20
17.2800
11
10.8510
21
17.2800
12
10.8690
22
17.3500
13
10.8510
23
17.3500
0
INSERT
8
1
2
32767
10
10.8600
20
17.3500
41
0.0180
42
0.0180
0
INSERT
8
1
2
32767
10
10.3900
20
17.2800
41
0.0180
42
0.0180
0
TRACE
8
1
10
10.3900
20
17.2710
11
10.3900
21
17.2890
12
10.8600
22
17.2710
13
10.8600
23
17.2890
0
INSERT
8
1
2
32767
10
10.8600
20
17.2800
41
0.0180
42
0.0180
0
INSERT
8
1
2
32767
10
10.1800
20
17.0700
41
0.0180
42
0.0180
0
TRACE
8
1
10
10.1864
20
17.0636
11
10.1736
21
17.0764
12
10.3964
22
17.2736
13
10.3836
23
17.2864
0
INSERT
8
1
2
32767
10
10.3900
20
17.2800
41
0.0180
42
0.0180
0
INSERT
8
1
2
32767
10
10.1800
20
17.0400
41
0.0180
42
0.0180
0
TRACE
8
1
10
10.1890
20
17.0400
11
10.1710
21
17.0400
12
10.1890
22
17.0700
13
10.1710
23
17.0700
0
INSERT
8
1
2
32767
10
10.1800
20
17.0700
41
0.0180
42
0.0180
0
INSERT
8
1
2
32767
10
10.8900
20
18.7900
41
0.0180
42
0.0180
0
TRACE
8
1
10
10.8836
20
18.7836
11
10.8964
21
18.7964
12
11.0836
22
18.5836
13
11.0964
23
18.5964
0
INSERT
8
1
2
32767
10
11.0900
20
18.5900
41
0.0180
42
0.0180
0
INSERT
8
1
2
32767
10
10.2100
20
17.3100
41
0.0180
42
0.0180
0
TRACE
8
1
10
10.2190
20
17.3100
11
10.2010
21
17.3100
12
10.2190
22
17.4100
13
10.2010
23
17.4100
0
INSERT
8
1
2
32767
10
10.2100
20
17.4100
41
0.0180
42
0.0180
0
INSERT
8
1
2
32767
10
10.0800
20
17.1800
41
0.0180
42
0.0180
0
TRACE
8
1
10
10.0864
20
17.1736
11
10.0736
21
17.1864
12
10.2164
22
17.3036
13
10.2036
23
17.3164
0
INSERT
8
1
2
32767
10
10.2100
20
17.3100
41
0.0180
42
0.0180
0
INSERT
8
1
2
32767
10
10.0800
20
16.9300
41
0.0180
42
0.0180
0
TRACE
8
1
10
10.0890
20
16.9300
11
10.0710
21
16.9300
12
10.0890
22
17.1800
13
10.0710
23
17.1800
0
INSERT
8
1
2
32767
10
10.0800
20
17.1800
41
0.0180
42
0.0180
0
INSERT
8
1
2
32767
10
10.0800
20
16.9300
41
0.0180
42
0.0180
0
TRACE
8
1
10
10.0800
20
16.9210
11
10.0800
21
16.9390
12
11.1000
22
16.9210
13
11.1000
23
16.9390
0
INSERT
8
1
2
32767
10
11.1000
20
16.9300
41
0.0180
42
0.0180
0
INSERT
8
1
2
32767
10
11.2200
20
17.4200
41
0.0180
42
0.0180
0
TRACE
8
1
10
11.2200
20
17.4110
11
11.2200
21
17.4290
12
11.4000
22
17.4110
13
11.4000
23
17.4290
0
INSERT
8
1
2
32767
10
11.4000
20
17.4200
41
0.0180
42
0.0180
0
INSERT
8
1
2
32767
10
11.5000
20
17.3300
41
0.0180
42
0.0180
0
TRACE
8
1
10
11.5090
20
17.3300
11
11.4910
21
17.3300
12
11.5090
22
17.4200
13
11.4910
23
17.4200
0
INSERT
8
1
2
32767
10
11.5000
20
17.4200
41
0.0180
42
0.0180
0
INSERT
8
1
2
32767
10
11.0100
20
16.9700
41
0.0180
42
0.0180
0
TRACE
8
1
10
11.0100
20
16.9610
11
11.0100
21
16.9790
12
11.0700
22
16.9610
13
11.0700
23
16.9790
0
INSERT
8
1
2
32767
10
11.0700
20
16.9700
41
0.0180
42
0.0180
0
INSERT
8
1
2
32767
10
11.0700
20
16.9700
41
0.0180
42
0.0180
0
TRACE
8
1
10
11.0764
20
16.9636
11
11.0636
21
16.9764
12
11.4464
22
17.3336
13
11.4336
23
17.3464
0
INSERT
8
1
2
32767
10
11.4400
20
17.3400
41
0.0180
42
0.0180
0
INSERT
8
1
2
32767
10
11.4400
20
17.3400
41
0.0180
42
0.0180
0
TRACE
8
1
10
11.4464
20
17.3336
11
11.4336
21
17.3464
12
11.4564
22
17.3436
13
11.4436
23
17.3564
0
INSERT
8
1
2
32767
10
11.4500
20
17.3500
41
0.0180
42
0.0180
0
INSERT
8
1
2
32767
10
11.4500
20
17.3500
41
0.0180
42
0.0180
0
TRACE
8
1
10
11.4590
20
17.3500
11
11.4410
21
17.3500
12
11.4590
22
17.4700
13
11.4410
23
17.4700
0
INSERT
8
1
2
32767
10
11.4500
20
17.4700
41
0.0180
42
0.0180
0
INSERT
8
1
2
32767
10
11.4500
20
17.4700
41
0.0180
42
0.0180
0
TRACE
8
1
10
11.4564
20
17.4636
11
11.4436
21
17.4764
12
11.5864
22
17.5936
13
11.5736
23
17.6064
0
INSERT
8
1
2
32767
10
11.5800
20
17.6000
41
0.0180
42
0.0180
0
INSERT
8
1
2
32767
10
11.5800
20
17.6000
41
0.0180
42
0.0180
0
TRACE
8
1
10
11.5800
20
17.5910
11
11.5800
21
17.6090
12
11.6400
22
17.5910
13
11.6400
23
17.6090
0
INSERT
8
1
2
32767
10
11.6400
20
17.6000
41
0.0180
42
0.0180
0
INSERT
8
1
2
32767
10
10.1300
20
19.1000
41
0.0180
42
0.0180
0
TRACE
8
1
10
10.1390
20
19.1000
11
10.1210
21
19.1000
12
10.1390
22
19.1400
13
10.1210
23
19.1400
0
INSERT
8
1
2
32767
10
10.1300
20
19.1400
41
0.0180
42
0.0180
0
INSERT
8
1
2
32767
10
9.7800
20
18.7300
41
0.0180
42
0.0180
0
TRACE
8
1
10
9.7890
20
18.7300
11
9.7710
21
18.7300
12
9.7890
22
18.8400
13
9.7710
23
18.8400
0
INSERT
8
1
2
32767
10
9.7800
20
18.8400
41
0.0180
42
0.0180
0
INSERT
8
1
2
32767
10
9.9100
20
19.1100
41
0.0180
42
0.0180
0
TRACE
8
1
10
9.9036
20
19.1036
11
9.9164
21
19.1164
12
9.9136
22
19.0936
13
9.9264
23
19.1064
0
INSERT
8
1
2
32767
10
9.9200
20
19.1000
41
0.0180
42
0.0180
0
INSERT
8
1
2
32767
10
11.3700
20
18.5100
41
0.0180
42
0.0180
0
TRACE
8
1
10
11.3764
20
18.5036
11
11.3636
21
18.5164
12
11.4064
22
18.5336
13
11.3936
23
18.5464
0
INSERT
8
1
2
32767
10
11.4000
20
18.5400
41
0.0180
42
0.0180
0
INSERT
8
1
2
32767
10
11.3700
20
18.0600
41
0.0180
42
0.0180
0
TRACE
8
1
10
11.3790
20
18.0600
11
11.3610
21
18.0600
12
11.3790
22
18.5100
13
11.3610
23
18.5100
0
INSERT
8
1
2
32767
10
11.3700
20
18.5100
41
0.0180
42
0.0180
0
INSERT
8
1
2
32767
10
11.3100
20
18.0000
41
0.0180
42
0.0180
0
TRACE
8
1
10
11.3164
20
17.9936
11
11.3036
21
18.0064
12
11.3764
22
18.0536
13
11.3636
23
18.0664
0
INSERT
8
1
2
32767
10
11.3700
20
18.0600
41
0.0180
42
0.0180
0
INSERT
8
1
2
32767
10
11.4100
20
18.5100
41
0.0180
42
0.0180
0
TRACE
8
1
10
11.4164
20
18.5036
11
11.4036
21
18.5164
12
11.4364
22
18.5236
13
11.4236
23
18.5364
0
INSERT
8
1
2
32767
10
11.4300
20
18.5300
41
0.0180
42
0.0180
0
INSERT
8
1
2
32767
10
11.4100
20
18.1300
41
0.0180
42
0.0180
0
TRACE
8
1
10
11.4190
20
18.1300
11
11.4010
21
18.1300
12
11.4190
22
18.5100
13
11.4010
23
18.5100
0
INSERT
8
1
2
32767
10
11.4100
20
18.5100
41
0.0180
42
0.0180
0
INSERT
8
1
2
32767
10
11.5200
20
17.6900
41
0.0180
42
0.0180
0
TRACE
8
1
10
11.5200
20
17.6810
11
11.5200
21
17.6990
12
11.5400
22
17.6810
13
11.5400
23
17.6990
0
INSERT
8
1
2
32767
10
11.5400
20
17.6900
41
0.0180
42
0.0180
0
INSERT
8
1
2
32767
10
11.5200
20
17.6900
41
0.0180
42
0.0180
0
TRACE
8
1
10
11.5290
20
17.6900
11
11.5110
21
17.6900
12
11.5290
22
18.0300
13
11.5110
23
18.0300
0
INSERT
8
1
2
32767
10
11.5200
20
18.0300
41
0.0180
42
0.0180
0
INSERT
8
1
2
32767
10
11.4100
20
18.0300
41
0.0180
42
0.0180
0
TRACE
8
1
10
11.4100
20
18.0210
11
11.4100
21
18.0390
12
11.5200
22
18.0210
13
11.5200
23
18.0390
0
INSERT
8
1
2
32767
10
11.5200
20
18.0300
41
0.0180
42
0.0180
0
INSERT
8
1
2
32767
10
11.4100
20
18.0300
41
0.0180
42
0.0180
0
TRACE
8
1
10
11.4190
20
18.0300
11
11.4010
21
18.0300
12
11.4190
22
18.1300
13
11.4010
23
18.1300
0
INSERT
8
1
2
32767
10
11.4100
20
18.1300
41
0.0180
42
0.0180
0
INSERT
8
1
2
32767
10
11.5500
20
18.0000
41
0.0180
42
0.0180
0
TRACE
8
1
10
11.5500
20
17.9910
11
11.5500
21
18.0090
12
11.6100
22
17.9910
13
11.6100
23
18.0090
0
INSERT
8
1
2
32767
10
11.6100
20
18.0000
41
0.0180
42
0.0180
0
INSERT
8
1
2
32767
10
11.5500
20
18.0000
41
0.0180
42
0.0180
0
TRACE
8
1
10
11.5590
20
18.0000
11
11.5410
21
18.0000
12
11.5590
22
18.0700
13
11.5410
23
18.0700
0
INSERT
8
1
2
32767
10
11.5500
20
18.0700
41
0.0180
42
0.0180
0
INSERT
8
1
2
32767
10
11.4600
20
18.0700
41
0.0180
42
0.0180
0
TRACE
8
1
10
11.4600
20
18.0610
11
11.4600
21
18.0790
12
11.5500
22
18.0610
13
11.5500
23
18.0790
0
INSERT
8
1
2
32767
10
11.5500
20
18.0700
41
0.0180
42
0.0180
0
INSERT
8
1
2
32767
10
11.4600
20
18.0700
41
0.0180
42
0.0180
0
TRACE
8
1
10
11.4690
20
18.0700
11
11.4510
21
18.0700
12
11.4690
22
18.1500
13
11.4510
23
18.1500
0
INSERT
8
1
2
32767
10
11.4600
20
18.1500
41
0.0180
42
0.0180
0
INSERT
8
1
2
32767
10
11.5700
20
18.3500
41
0.0180
42
0.0180
0
TRACE
8
1
10
11.5700
20
18.3410
11
11.5700
21
18.3590
12
11.6700
22
18.3410
13
11.6700
23
18.3590
0
INSERT
8
1
2
32767
10
11.6700
20
18.3500
41
0.0180
42
0.0180
0
INSERT
8
1
2
32767
10
11.5500
20
18.3300
41
0.0180
42
0.0180
0
TRACE
8
1
10
11.5564
20
18.3236
11
11.5436
21
18.3364
12
11.5764
22
18.3436
13
11.5636
23
18.3564
0
INSERT
8
1
2
32767
10
11.5700
20
18.3500
41
0.0180
42
0.0180
0
INSERT
8
1
2
32767
10
11.5500
20
18.2700
41
0.0180
42
0.0180
0
TRACE
8
1
10
11.5590
20
18.2700
11
11.5410
21
18.2700
12
11.5590
22
18.3300
13
11.5410
23
18.3300
0
INSERT
8
1
2
32767
10
11.5500
20
18.3300
41
0.0180
42
0.0180
0
INSERT
8
1
2
32767
10
11.5500
20
18.2600
41
0.0180
42
0.0180
0
TRACE
8
1
10
11.5590
20
18.2600
11
11.5410
21
18.2600
12
11.5590
22
18.2700
13
11.5410
23
18.2700
0
INSERT
8
1
2
32767
10
11.5500
20
18.2700
41
0.0180
42
0.0180
0
INSERT
8
1
2
32767
10
11.5500
20
18.2600
41
0.0180
42
0.0180
0
TRACE
8
1
10
11.5436
20
18.2536
11
11.5564
21
18.2664
12
11.6036
22
18.1936
13
11.6164
23
18.2064
0
INSERT
8
1
2
32767
10
11.6100
20
18.2000
41
0.0180
42
0.0180
0
INSERT
8
1
2
32767
10
11.7900
20
18.7200
41
0.0180
42
0.0180
0
TRACE
8
1
10
11.7990
20
18.7200
11
11.7810
21
18.7200
12
11.7990
22
18.7700
13
11.7810
23
18.7700
0
INSERT
8
1
2
32767
10
11.7900
20
18.7700
41
0.0180
42
0.0180
0
INSERT
8
1
2
32767
10
11.6000
20
18.6600
41
0.0180
42
0.0180
0
TRACE
8
1
10
11.6064
20
18.6536
11
11.5936
21
18.6664
12
11.6164
22
18.6636
13
11.6036
23
18.6764
0
INSERT
8
1
2
32767
10
11.6100
20
18.6700
41
0.0180
42
0.0180
0
INSERT
8
1
2
32767
10
12.1400
20
18.2200
41
0.0180
42
0.0180
0
TRACE
8
1
10
12.1490
20
18.2200
11
12.1310
21
18.2200
12
12.1490
22
18.6700
13
12.1310
23
18.6700
0
INSERT
8
1
2
32767
10
12.1400
20
18.6700
41
0.0180
42
0.0180
0
INSERT
8
1
2
32767
10
11.9900
20
18.2200
41
0.0180
42
0.0180
0
TRACE
8
1
10
11.9900
20
18.2110
11
11.9900
21
18.2290
12
12.1400
22
18.2110
13
12.1400
23
18.2290
0
INSERT
8
1
2
32767
10
12.1400
20
18.2200
41
0.0180
42
0.0180
0
INSERT
8
1
2
32767
10
12.1400
20
18.6600
41
0.0180
42
0.0180
0
TRACE
8
1
10
12.1490
20
18.6600
11
12.1310
21
18.6600
12
12.1490
22
18.7700
13
12.1310
23
18.7700
0
INSERT
8
1
2
32767
10
12.1400
20
18.7700
41
0.0180
42
0.0180
0
INSERT
8
1
2
32767
10
11.7900
20
18.7700
41
0.0180
42
0.0180
0
TRACE
8
1
10
11.7900
20
18.7610
11
11.7900
21
18.7790
12
12.1400
22
18.7610
13
12.1400
23
18.7790
0
INSERT
8
1
2
32767
10
12.1400
20
18.7700
41
0.0180
42
0.0180
0
INSERT
8
1
2
32767
10
12.1000
20
18.4200
41
0.0180
42
0.0180
0
TRACE
8
1
10
12.1090
20
18.4200
11
12.0910
21
18.4200
12
12.1090
22
18.6700
13
12.0910
23
18.6700
0
INSERT
8
1
2
32767
10
12.1000
20
18.6700
41
0.0180
42
0.0180
0
INSERT
8
1
2
32767
10
11.9800
20
18.4200
41
0.0180
42
0.0180
0
TRACE
8
1
10
11.9800
20
18.4110
11
11.9800
21
18.4290
12
12.1000
22
18.4110
13
12.1000
23
18.4290
0
INSERT
8
1
2
32767
10
12.1000
20
18.4200
41
0.0180
42
0.0180
0
INSERT
8
1
2
32767
10
11.6100
20
18.6700
41
0.0180
42
0.0180
0
TRACE
8
1
10
11.6100
20
18.6610
11
11.6100
21
18.6790
12
12.1000
22
18.6610
13
12.1000
23
18.6790
0
INSERT
8
1
2
32767
10
12.1000
20
18.6700
41
0.0180
42
0.0180
0
INSERT
8
1
2
32767
10
11.6100
20
18.6000
41
0.0180
42
0.0180
0
TRACE
8
1
10
11.6100
20
18.5910
11
11.6100
21
18.6090
12
11.9100
22
18.5910
13
11.9100
23
18.6090
0
INSERT
8
1
2
32767
10
11.9100
20
18.6000
41
0.0180
42
0.0180
0
INSERT
8
1
2
32767
10
11.9100
20
18.6000
41
0.0180
42
0.0180
0
TRACE
8
1
10
11.9036
20
18.5936
11
11.9164
21
18.6064
12
11.9336
22
18.5636
13
11.9464
23
18.5764
0
INSERT
8
1
2
32767
10
11.9400
20
18.5700
41
0.0180
42
0.0180
0
INSERT
8
1
2
32767
10
11.9400
20
18.5700
41
0.0180
42
0.0180
0
TRACE
8
1
10
11.9400
20
18.5610
11
11.9400
21
18.5790
12
12.0300
22
18.5610
13
12.0300
23
18.5790
0
INSERT
8
1
2
32767
10
12.0300
20
18.5700
41
0.0180
42
0.0180
0
INSERT
8
1
2
32767
10
12.0300
20
18.4700
41
0.0180
42
0.0180
0
TRACE
8
1
10
12.0390
20
18.4700
11
12.0210
21
18.4700
12
12.0390
22
18.5700
13
12.0210
23
18.5700
0
INSERT
8
1
2
32767
10
12.0300
20
18.5700
41
0.0180
42
0.0180
0
INSERT
8
1
2
32767
10
11.9100
20
18.4700
41
0.0180
42
0.0180
0
TRACE
8
1
10
11.9100
20
18.4610
11
11.9100
21
18.4790
12
12.0300
22
18.4610
13
12.0300
23
18.4790
0
INSERT
8
1
2
32767
10
12.0300
20
18.4700
41
0.0180
42
0.0180
0
INSERT
8
1
2
32767
10
11.9100
20
18.3700
41
0.0180
42
0.0180
0
TRACE
8
1
10
11.9190
20
18.3700
11
11.9010
21
18.3700
12
11.9190
22
18.4700
13
11.9010
23
18.4700
0
INSERT
8
1
2
32767
10
11.9100
20
18.4700
41
0.0180
42
0.0180
0
INSERT
8
1
2
32767
10
11.9100
20
18.3700
41
0.0180
42
0.0180
0
TRACE
8
1
10
11.9100
20
18.3610
11
11.9100
21
18.3790
12
12.0400
22
18.3610
13
12.0400
23
18.3790
0
INSERT
8
1
2
32767
10
12.0400
20
18.3700
41
0.0180
42
0.0180
0
INSERT
8
1
2
32767
10
12.0400
20
18.2700
41
0.0180
42
0.0180
0
TRACE
8
1
10
12.0490
20
18.2700
11
12.0310
21
18.2700
12
12.0490
22
18.3700
13
12.0310
23
18.3700
0
INSERT
8
1
2
32767
10
12.0400
20
18.3700
41
0.0180
42
0.0180
0
INSERT
8
1
2
32767
10
11.9400
20
18.2700
41
0.0180
42
0.0180
0
TRACE
8
1
10
11.9400
20
18.2610
11
11.9400
21
18.2790
12
12.0400
22
18.2610
13
12.0400
23
18.2790
0
INSERT
8
1
2
32767
10
12.0400
20
18.2700
41
0.0180
42
0.0180
0
INSERT
8
1
2
32767
10
11.7100
20
18.2200
41
0.0180
42
0.0180
0
TRACE
8
1
10
11.7100
20
18.2110
11
11.7100
21
18.2290
12
11.8500
22
18.2110
13
11.8500
23
18.2290
0
INSERT
8
1
2
32767
10
11.8500
20
18.2200
41
0.0180
42
0.0180
0
INSERT
8
1
2
32767
10
11.8500
20
18.2200
41
0.0180
42
0.0180
0
TRACE
8
1
10
11.8590
20
18.2200
11
11.8410
21
18.2200
12
11.8590
22
18.3600
13
11.8410
23
18.3600
0
INSERT
8
1
2
32767
10
11.8500
20
18.3600
41
0.0180
42
0.0180
0
INSERT
8
1
2
32767
10
11.8500
20
18.5200
41
0.0180
42
0.0180
0
TRACE
8
1
10
11.8500
20
18.5110
11
11.8500
21
18.5290
12
11.9400
22
18.5110
13
11.9400
23
18.5290
0
INSERT
8
1
2
32767
10
11.9400
20
18.5200
41
0.0180
42
0.0180
0
INSERT
8
1
2
32767
10
11.8500
20
18.3600
41
0.0180
42
0.0180
0
TRACE
8
1
10
11.8590
20
18.3600
11
11.8410
21
18.3600
12
11.8590
22
18.5200
13
11.8410
23
18.5200
0
INSERT
8
1
2
32767
10
11.8500
20
18.5200
41
0.0180
42
0.0180
0
INSERT
8
1
2
32767
10
11.8800
20
18.1700
41
0.0180
42
0.0180
0
TRACE
8
1
10
11.8890
20
18.1700
11
11.8710
21
18.1700
12
11.8890
22
18.3200
13
11.8710
23
18.3200
0
INSERT
8
1
2
32767
10
11.8800
20
18.3200
41
0.0180
42
0.0180
0
INSERT
8
1
2
32767
10
11.8400
20
18.1700
41
0.0180
42
0.0180
0
TRACE
8
1
10
11.8400
20
18.1610
11
11.8400
21
18.1790
12
11.8800
22
18.1610
13
11.8800
23
18.1790
0
INSERT
8
1
2
32767
10
11.8800
20
18.1700
41
0.0180
42
0.0180
0
INSERT
8
1
2
32767
10
11.8800
20
18.3200
41
0.0180
42
0.0180
0
TRACE
8
1
10
11.8800
20
18.3110
11
11.8800
21
18.3290
12
11.9600
22
18.3110
13
11.9600
23
18.3290
0
INSERT
8
1
2
32767
10
11.9600
20
18.3200
41
0.0180
42
0.0180
0
INSERT
8
1
2
32767
10
11.9100
20
18.2700
41
0.0180
42
0.0180
0
TRACE
8
1
10
11.9100
20
18.2610
11
11.9100
21
18.2790
12
11.9400
22
18.2610
13
11.9400
23
18.2790
0
INSERT
8
1
2
32767
10
11.9400
20
18.2700
41
0.0180
42
0.0180
0
INSERT
8
1
2
32767
10
11.9100
20
18.1300
41
0.0180
42
0.0180
0
TRACE
8
1
10
11.9190
20
18.1300
11
11.9010
21
18.1300
12
11.9190
22
18.2700
13
11.9010
23
18.2700
0
INSERT
8
1
2
32767
10
11.9100
20
18.2700
41
0.0180
42
0.0180
0
INSERT
8
1
2
32767
10
11.9100
20
18.1300
41
0.0180
42
0.0180
0
TRACE
8
1
10
11.9100
20
18.1210
11
11.9100
21
18.1390
12
11.9600
22
18.1210
13
11.9600
23
18.1390
0
INSERT
8
1
2
32767
10
11.9600
20
18.1300
41
0.0180
42
0.0180
0
INSERT
8
1
2
32767
10
11.9600
20
18.1300
41
0.0180
42
0.0180
0
TRACE
8
1
10
11.9536
20
18.1236
11
11.9664
21
18.1364
12
11.9636
22
18.1136
13
11.9764
23
18.1264
0
INSERT
8
1
2
32767
10
11.9700
20
18.1200
41
0.0180
42
0.0180
0
INSERT
8
1
2
32767
10
11.7100
20
18.0000
41
0.0180
42
0.0180
0
TRACE
8
1
10
11.7190
20
18.0000
11
11.7010
21
18.0000
12
11.7190
22
18.2000
13
11.7010
23
18.2000
0
INSERT
8
1
2
32767
10
11.7100
20
18.2000
41
0.0180
42
0.0180
0
INSERT
8
1
2
32767
10
11.6100
20
18.1000
41
0.0180
42
0.0180
0
TRACE
8
1
10
11.6100
20
18.0910
11
11.6100
21
18.1090
12
11.6800
22
18.0910
13
11.6800
23
18.1090
0
INSERT
8
1
2
32767
10
11.6800
20
18.1000
41
0.0180
42
0.0180
0
INSERT
8
1
2
32767
10
11.6800
20
17.9600
41
0.0180
42
0.0180
0
TRACE
8
1
10
11.6890
20
17.9600
11
11.6710
21
17.9600
12
11.6890
22
18.1000
13
11.6710
23
18.1000
0
INSERT
8
1
2
32767
10
11.6800
20
18.1000
41
0.0180
42
0.0180
0
INSERT
8
1
2
32767
10
11.6800
20
17.9500
41
0.0180
42
0.0180
0
TRACE
8
1
10
11.6890
20
17.9500
11
11.6710
21
17.9500
12
11.6890
22
17.9600
13
11.6710
23
17.9600
0
INSERT
8
1
2
32767
10
11.6800
20
17.9600
41
0.0180
42
0.0180
0
INSERT
8
1
2
32767
10
11.5600
20
17.9500
41
0.0180
42
0.0180
0
TRACE
8
1
10
11.5600
20
17.9410
11
11.5600
21
17.9590
12
11.6800
22
17.9410
13
11.6800
23
17.9590
0
INSERT
8
1
2
32767
10
11.6800
20
17.9500
41
0.0180
42
0.0180
0
INSERT
8
1
2
32767
10
11.5600
20
17.7500
41
0.0180
42
0.0180
0
TRACE
8
1
10
11.5690
20
17.7500
11
11.5510
21
17.7500
12
11.5690
22
17.9500
13
11.5510
23
17.9500
0
INSERT
8
1
2
32767
10
11.5600
20
17.9500
41
0.0180
42
0.0180
0
INSERT
8
1
2
32767
10
11.8500
20
18.0200
41
0.0180
42
0.0180
0
TRACE
8
1
10
11.8500
20
18.0110
11
11.8500
21
18.0290
12
11.9700
22
18.0110
13
11.9700
23
18.0290
0
INSERT
8
1
2
32767
10
11.9700
20
18.0200
41
0.0180
42
0.0180
0
INSERT
8
1
2
32767
10
11.7500
20
18.0300
41
0.0180
42
0.0180
0
TRACE
8
1
10
11.7590
20
18.0300
11
11.7410
21
18.0300
12
11.7590
22
18.1700
13
11.7410
23
18.1700
0
INSERT
8
1
2
32767
10
11.7500
20
18.1700
41
0.0180
42
0.0180
0
INSERT
8
1
2
32767
10
11.7500
20
18.0300
41
0.0180
42
0.0180
0
TRACE
8
1
10
11.7590
20
18.0300
11
11.7410
21
18.0300
12
11.7590
22
18.0400
13
11.7410
23
18.0400
0
INSERT
8
1
2
32767
10
11.7500
20
18.0400
41
0.0180
42
0.0180
0
INSERT
8
1
2
32767
10
11.7500
20
17.9700
41
0.0180
42
0.0180
0
TRACE
8
1
10
11.7590
20
17.9700
11
11.7410
21
17.9700
12
11.7590
22
18.0300
13
11.7410
23
18.0300
0
INSERT
8
1
2
32767
10
11.7500
20
18.0300
41
0.0180
42
0.0180
0
INSERT
8
1
2
32767
10
11.7500
20
18.1700
41
0.0180
42
0.0180
0
TRACE
8
1
10
11.7500
20
18.1610
11
11.7500
21
18.1790
12
11.8700
22
18.1610
13
11.8700
23
18.1790
0
INSERT
8
1
2
32767
10
11.8700
20
18.1700
41
0.0180
42
0.0180
0
INSERT
8
1
2
32767
10
11.8000
20
18.0200
41
0.0180
42
0.0180
0
TRACE
8
1
10
11.8000
20
18.0110
11
11.8000
21
18.0290
12
11.8600
22
18.0110
13
11.8600
23
18.0290
0
INSERT
8
1
2
32767
10
11.8600
20
18.0200
41
0.0180
42
0.0180
0
INSERT
8
1
2
32767
10
11.6100
20
18.3000
41
0.0180
42
0.0180
0
TRACE
8
1
10
11.6100
20
18.2910
11
11.6100
21
18.3090
12
11.7100
22
18.2910
13
11.7100
23
18.3090
0
INSERT
8
1
2
32767
10
11.7100
20
18.3000
41
0.0180
42
0.0180
0
INSERT
8
1
2
32767
10
10.7200
20
18.2400
41
0.0180
42
0.0180
0
TRACE
8
1
10
10.7200
20
18.2310
11
10.7200
21
18.2490
12
10.7300
22
18.2310
13
10.7300
23
18.2490
0
INSERT
8
1
2
32767
10
10.7300
20
18.2400
41
0.0180
42
0.0180
0
INSERT
8
1
2
32767
10
10.7300
20
18.2400
41
0.0180
42
0.0180
0
TRACE
8
1
10
10.7300
20
18.2310
11
10.7300
21
18.2490
12
10.8200
22
18.2310
13
10.8200
23
18.2490
0
INSERT
8
1
2
32767
10
10.8200
20
18.2400
41
0.0180
42
0.0180
0
INSERT
8
1
2
32767
10
10.6900
20
18.4900
41
0.0180
42
0.0180
0
TRACE
8
1
10
10.6900
20
18.4810
11
10.6900
21
18.4990
12
10.8200
22
18.4810
13
10.8200
23
18.4990
0
INSERT
8
1
2
32767
10
10.8200
20
18.4900
41
0.0180
42
0.0180
0
INSERT
8
1
2
32767
10
10.8600
20
18.5800
41
0.0180
42
0.0180
0
TRACE
8
1
10
10.8690
20
18.5800
11
10.8510
21
18.5800
12
10.8690
22
18.7300
13
10.8510
23
18.7300
0
INSERT
8
1
2
32767
10
10.8600
20
18.7300
41
0.0180
42
0.0180
0
INSERT
8
1
2
32767
10
10.8600
20
18.7300
41
0.0180
42
0.0180
0
TRACE
8
1
10
10.8690
20
18.7300
11
10.8510
21
18.7300
12
10.8690
22
18.7400
13
10.8510
23
18.7400
0
INSERT
8
1
2
32767
10
10.8600
20
18.7400
41
0.0180
42
0.0180
0
INSERT
8
1
2
32767
10
10.8200
20
18.2400
41
0.0180
42
0.0180
0
TRACE
8
1
10
10.8290
20
18.2400
11
10.8110
21
18.2400
12
10.8290
22
18.6500
13
10.8110
23
18.6500
0
INSERT
8
1
2
32767
10
10.8200
20
18.6500
41
0.0180
42
0.0180
0
INSERT
8
1
2
32767
10
10.8200
20
18.6500
41
0.0180
42
0.0180
0
TRACE
8
1
10
10.8290
20
18.6500
11
10.8110
21
18.6500
12
10.8290
22
18.7000
13
10.8110
23
18.7000
0
INSERT
8
1
2
32767
10
10.8200
20
18.7000
41
0.0180
42
0.0180
0
INSERT
8
1
2
32767
10
10.2800
20
18.7300
41
0.0180
42
0.0180
0
TRACE
8
1
10
10.2800
20
18.7210
11
10.2800
21
18.7390
12
10.6500
22
18.7210
13
10.6500
23
18.7390
0
INSERT
8
1
2
32767
10
10.6500
20
18.7300
41
0.0180
42
0.0180
0
INSERT
8
1
2
32767
10
9.9500
20
18.2800
41
0.0180
42
0.0180
0
TRACE
8
1
10
9.9590
20
18.2800
11
9.9410
21
18.2800
12
9.9590
22
18.6600
13
9.9410
23
18.6600
0
INSERT
8
1
2
32767
10
9.9500
20
18.6600
41
0.0180
42
0.0180
0
INSERT
8
1
2
32767
10
9.9500
20
18.6600
41
0.0180
42
0.0180
0
TRACE
8
1
10
9.9564
20
18.6536
11
9.9436
21
18.6664
12
10.2164
22
18.9136
13
10.2036
23
18.9264
0
INSERT
8
1
2
32767
10
10.2100
20
18.9200
41
0.0180
42
0.0180
0
INSERT
8
1
2
32767
10
10.0500
20
18.1800
41
0.0180
42
0.0180
0
TRACE
8
1
10
10.0500
20
18.1710
11
10.0500
21
18.1890
12
10.4000
22
18.1710
13
10.4000
23
18.1890
0
INSERT
8
1
2
32767
10
10.4000
20
18.1800
41
0.0180
42
0.0180
0
INSERT
8
1
2
32767
10
10.4000
20
18.1800
41
0.0180
42
0.0180
0
TRACE
8
1
10
10.4064
20
18.1736
11
10.3936
21
18.1864
12
10.5564
22
18.3236
13
10.5436
23
18.3364
0
INSERT
8
1
2
32767
10
10.5500
20
18.3300
41
0.0180
42
0.0180
0
INSERT
8
1
2
32767
10
10.5500
20
18.3300
41
0.0180
42
0.0180
0
TRACE
8
1
10
10.5564
20
18.3236
11
10.5436
21
18.3364
12
10.5664
22
18.3336
13
10.5536
23
18.3464
0
INSERT
8
1
2
32767
10
10.5600
20
18.3400
41
0.0180
42
0.0180
0
INSERT
8
1
2
32767
10
10.5600
20
18.3400
41
0.0180
42
0.0180
0
TRACE
8
1
10
10.5600
20
18.3310
11
10.5600
21
18.3490
12
10.7600
22
18.3310
13
10.7600
23
18.3490
0
INSERT
8
1
2
32767
10
10.7600
20
18.3400
41
0.0180
42
0.0180
0
INSERT
8
1
2
32767
10
10.7600
20
18.3400
41
0.0180
42
0.0180
0
TRACE
8
1
10
10.7690
20
18.3400
11
10.7510
21
18.3400
12
10.7690
22
18.4400
13
10.7510
23
18.4400
0
INSERT
8
1
2
32767
10
10.7600
20
18.4400
41
0.0180
42
0.0180
0
INSERT
8
1
2
32767
10
10.6000
20
18.4400
41
0.0180
42
0.0180
0
TRACE
8
1
10
10.6000
20
18.4310
11
10.6000
21
18.4490
12
10.7600
22
18.4310
13
10.7600
23
18.4490
0
INSERT
8
1
2
32767
10
10.7600
20
18.4400
41
0.0180
42
0.0180
0
INSERT
8
1
2
32767
10
10.6000
20
18.4400
41
0.0180
42
0.0180
0
TRACE
8
1
10
10.6090
20
18.4400
11
10.5910
21
18.4400
12
10.6090
22
18.5300
13
10.5910
23
18.5300
0
INSERT
8
1
2
32767
10
10.6000
20
18.5300
41
0.0180
42
0.0180
0
INSERT
8
1
2
32767
10
10.6000
20
18.5300
41
0.0180
42
0.0180
0
TRACE
8
1
10
10.6090
20
18.5300
11
10.5910
21
18.5300
12
10.6090
22
18.5400
13
10.5910
23
18.5400
0
INSERT
8
1
2
32767
10
10.6000
20
18.5400
41
0.0180
42
0.0180
0
INSERT
8
1
2
32767
10
10.6000
20
18.5400
41
0.0180
42
0.0180
0
TRACE
8
1
10
10.6000
20
18.5310
11
10.6000
21
18.5490
12
10.7700
22
18.5310
13
10.7700
23
18.5490
0
INSERT
8
1
2
32767
10
10.7700
20
18.5400
41
0.0180
42
0.0180
0
INSERT
8
1
2
32767
10
10.7700
20
18.5400
41
0.0180
42
0.0180
0
TRACE
8
1
10
10.7790
20
18.5400
11
10.7610
21
18.5400
12
10.7790
22
18.6500
13
10.7610
23
18.6500
0
INSERT
8
1
2
32767
10
10.7700
20
18.6500
41
0.0180
42
0.0180
0
INSERT
8
1
2
32767
10
10.2000
20
18.6500
41
0.0180
42
0.0180
0
TRACE
8
1
10
10.2000
20
18.6410
11
10.2000
21
18.6590
12
10.7700
22
18.6410
13
10.7700
23
18.6590
0
INSERT
8
1
2
32767
10
10.7700
20
18.6500
41
0.0180
42
0.0180
0
INSERT
8
1
2
32767
10
10.2000
20
18.6500
41
0.0180
42
0.0180
0
TRACE
8
1
10
10.2090
20
18.6500
11
10.1910
21
18.6500
12
10.2090
22
18.8000
13
10.1910
23
18.8000
0
INSERT
8
1
2
32767
10
10.2000
20
18.8000
41
0.0180
42
0.0180
0
INSERT
8
1
2
32767
10
10.2000
20
18.8000
41
0.0180
42
0.0180
0
TRACE
8
1
10
10.2000
20
18.7910
11
10.2000
21
18.8090
12
10.3700
22
18.7910
13
10.3700
23
18.8090
0
INSERT
8
1
2
32767
10
10.3700
20
18.8000
41
0.0180
42
0.0180
0
INSERT
8
1
2
32767
10
10.3700
20
18.8000
41
0.0180
42
0.0180
0
TRACE
8
1
10
10.3790
20
18.8000
11
10.3610
21
18.8000
12
10.3790
22
19.0600
13
10.3610
23
19.0600
0
INSERT
8
1
2
32767
10
10.3700
20
19.0600
41
0.0180
42
0.0180
0
INSERT
8
1
2
32767
10
10.3700
20
19.0600
41
0.0180
42
0.0180
0
TRACE
8
1
10
10.3790
20
19.0600
11
10.3610
21
19.0600
12
10.3790
22
19.0700
13
10.3610
23
19.0700
0
INSERT
8
1
2
32767
10
10.3700
20
19.0700
41
0.0180
42
0.0180
0
INSERT
8
1
2
32767
10
10.0600
20
19.0700
41
0.0180
42
0.0180
0
TRACE
8
1
10
10.0600
20
19.0610
11
10.0600
21
19.0790
12
10.3700
22
19.0610
13
10.3700
23
19.0790
0
INSERT
8
1
2
32767
10
10.3700
20
19.0700
41
0.0180
42
0.0180
0
INSERT
8
1
2
32767
10
10.4900
20
19.1900
41
0.0180
42
0.0180
0
TRACE
8
1
10
10.4836
20
19.1836
11
10.4964
21
19.1964
12
10.8836
22
18.7836
13
10.8964
23
18.7964
0
INSERT
8
1
2
32767
10
10.8900
20
18.7900
41
0.0180
42
0.0180
0
INSERT
8
1
2
32767
10
10.6000
20
19.1500
41
0.0180
42
0.0180
0
TRACE
8
1
10
10.6090
20
19.1500
11
10.5910
21
19.1500
12
10.6090
22
19.2400
13
10.5910
23
19.2400
0
INSERT
8
1
2
32767
10
10.6000
20
19.2400
41
0.0180
42
0.0180
0
INSERT
8
1
2
32767
10
10.6000
20
19.1500
41
0.0180
42
0.0180
0
TRACE
8
1
10
10.5936
20
19.1436
11
10.6064
21
19.1564
12
11.0436
22
18.6936
13
11.0564
23
18.7064
0
INSERT
8
1
2
32767
10
11.0500
20
18.7000
41
0.0180
42
0.0180
0
INSERT
8
1
2
32767
10
10.0500
20
19.1900
41
0.0180
42
0.0180
0
TRACE
8
1
10
10.0500
20
19.1810
11
10.0500
21
19.1990
12
10.4900
22
19.1810
13
10.4900
23
19.1990
0
INSERT
8
1
2
32767
10
10.4900
20
19.1900
41
0.0180
42
0.0180
0
INSERT
8
1
2
32767
10
10.0500
20
19.0700
41
0.0180
42
0.0180
0
TRACE
8
1
10
10.0500
20
19.0610
11
10.0500
21
19.0790
12
10.0600
22
19.0610
13
10.0600
23
19.0790
0
INSERT
8
1
2
32767
10
10.0600
20
19.0700
41
0.0180
42
0.0180
0
INSERT
8
1
2
32767
10
10.0500
20
19.0700
41
0.0180
42
0.0180
0
TRACE
8
1
10
10.0590
20
19.0700
11
10.0410
21
19.0700
12
10.0590
22
19.1900
13
10.0410
23
19.1900
0
INSERT
8
1
2
32767
10
10.0500
20
19.1900
41
0.0180
42
0.0180
0
INSERT
8
1
2
32767
10
10.4800
20
19.1200
41
0.0180
42
0.0180
0
TRACE
8
1
10
10.4736
20
19.1136
11
10.4864
21
19.1264
12
10.8536
22
18.7336
13
10.8664
23
18.7464
0
INSERT
8
1
2
32767
10
10.8600
20
18.7400
41
0.0180
42
0.0180
0
INSERT
8
1
2
32767
10
10.2100
20
19.1200
41
0.0180
42
0.0180
0
TRACE
8
1
10
10.2100
20
19.1110
11
10.2100
21
19.1290
12
10.4800
22
19.1110
13
10.4800
23
19.1290
0
INSERT
8
1
2
32767
10
10.4800
20
19.1200
41
0.0180
42
0.0180
0
INSERT
8
1
2
32767
10
10.6400
20
18.7300
41
0.0180
42
0.0180
0
TRACE
8
1
10
10.6400
20
18.7210
11
10.6400
21
18.7390
12
10.8200
22
18.7210
13
10.8200
23
18.7390
0
INSERT
8
1
2
32767
10
10.8200
20
18.7300
41
0.0180
42
0.0180
0
INSERT
8
1
2
32767
10
10.8200
20
18.6900
41
0.0180
42
0.0180
0
TRACE
8
1
10
10.8290
20
18.6900
11
10.8110
21
18.6900
12
10.8290
22
18.7300
13
10.8110
23
18.7300
0
INSERT
8
1
2
32767
10
10.8200
20
18.7300
41
0.0180
42
0.0180
0
INSERT
8
1
2
32767
10
11.6900
20
18.3500
41
0.0180
42
0.0180
0
TRACE
8
1
10
11.6964
20
18.3436
11
11.6836
21
18.3564
12
11.7664
22
18.4136
13
11.7536
23
18.4264
0
INSERT
8
1
2
32767
10
11.7600
20
18.4200
41
0.0180
42
0.0180
0
INSERT
8
1
2
32767
10
11.6700
20
18.3500
41
0.0180
42
0.0180
0
TRACE
8
1
10
11.6700
20
18.3410
11
11.6700
21
18.3590
12
11.6900
22
18.3410
13
11.6900
23
18.3590
0
INSERT
8
1
2
32767
10
11.6900
20
18.3500
41
0.0180
42
0.0180
0
INSERT
8
1
2
32767
10
11.8000
20
18.3000
41
0.0180
42
0.0180
0
TRACE
8
1
10
11.8090
20
18.3000
11
11.7910
21
18.3000
12
11.8090
22
18.3700
13
11.7910
23
18.3700
0
INSERT
8
1
2
32767
10
11.8000
20
18.3700
41
0.0180
42
0.0180
0
INSERT
8
1
2
32767
10
11.8000
20
18.3700
41
0.0180
42
0.0180
0
TRACE
8
1
10
11.8064
20
18.3636
11
11.7936
21
18.3764
12
11.8164
22
18.3736
13
11.8036
23
18.3864
0
INSERT
8
1
2
32767
10
11.8100
20
18.3800
41
0.0180
42
0.0180
0
INSERT
8
1
2
32767
10
11.8100
20
18.3800
41
0.0180
42
0.0180
0
TRACE
8
1
10
11.8190
20
18.3800
11
11.8010
21
18.3800
12
11.8190
22
18.5000
13
11.8010
23
18.5000
0
INSERT
8
1
2
32767
10
11.8100
20
18.5000
41
0.0180
42
0.0180
0
INSERT
8
1
2
32767
10
11.6100
20
18.5000
41
0.0180
42
0.0180
0
TRACE
8
1
10
11.6100
20
18.4910
11
11.6100
21
18.5090
12
11.8100
22
18.4910
13
11.8100
23
18.5090
0
INSERT
8
1
2
32767
10
11.8100
20
18.5000
41
0.0180
42
0.0180
0
INSERT
8
1
2
32767
10
11.7500
20
17.8700
41
0.0180
42
0.0180
0
TRACE
8
1
10
11.7590
20
17.8700
11
11.7410
21
17.8700
12
11.7590
22
17.9500
13
11.7410
23
17.9500
0
INSERT
8
1
2
32767
10
11.7500
20
17.9500
41
0.0180
42
0.0180
0
INSERT
8
1
2
32767
10
11.7500
20
17.8600
41
0.0180
42
0.0180
0
TRACE
8
1
10
11.7590
20
17.8600
11
11.7410
21
17.8600
12
11.7590
22
17.8700
13
11.7410
23
17.8700
0
INSERT
8
1
2
32767
10
11.7500
20
17.8700
41
0.0180
42
0.0180
0
INSERT
8
1
2
32767
10
11.6900
20
17.8000
41
0.0180
42
0.0180
0
TRACE
8
1
10
11.6964
20
17.7936
11
11.6836
21
17.8064
12
11.7564
22
17.8536
13
11.7436
23
17.8664
0
INSERT
8
1
2
32767
10
11.7500
20
17.8600
41
0.0180
42
0.0180
0
INSERT
8
1
2
32767
10
11.6100
20
17.8000
41
0.0180
42
0.0180
0
TRACE
8
1
10
11.6100
20
17.7910
11
11.6100
21
17.8090
12
11.6900
22
17.7910
13
11.6900
23
17.8090
0
INSERT
8
1
2
32767
10
11.6900
20
17.8000
41
0.0180
42
0.0180
0
INSERT
8
1
2
32767
10
11.5600
20
17.7500
41
0.0180
42
0.0180
0
TRACE
8
1
10
11.5600
20
17.7410
11
11.5600
21
17.7590
12
11.7100
22
17.7410
13
11.7100
23
17.7590
0
INSERT
8
1
2
32767
10
11.7100
20
17.7500
41
0.0180
42
0.0180
0
INSERT
8
1
2
32767
10
11.7100
20
17.7500
41
0.0180
42
0.0180
0
TRACE
8
1
10
11.7164
20
17.7436
11
11.7036
21
17.7564
12
11.7964
22
17.8236
13
11.7836
23
17.8364
0
INSERT
8
1
2
32767
10
11.7900
20
17.8300
41
0.0180
42
0.0180
0
INSERT
8
1
2
32767
10
11.8000
20
17.8400
41
0.0180
42
0.0180
0
TRACE
8
1
10
11.8090
20
17.8400
11
11.7910
21
17.8400
12
11.8090
22
18.0200
13
11.7910
23
18.0200
0
INSERT
8
1
2
32767
10
11.8000
20
18.0200
41
0.0180
42
0.0180
0
INSERT
8
1
2
32767
10
11.7900
20
17.8300
41
0.0180
42
0.0180
0
TRACE
8
1
10
11.7964
20
17.8236
11
11.7836
21
17.8364
12
11.8064
22
17.8336
13
11.7936
23
17.8464
0
INSERT
8
1
2
32767
10
11.8000
20
17.8400
41
0.0180
42
0.0180
0
INSERT
8
1
2
32767
10
12.7300
20
17.2300
41
0.0180
42
0.0180
0
TRACE
8
1
10
12.7390
20
17.2300
11
12.7210
21
17.2300
12
12.7390
22
18.4300
13
12.7210
23
18.4300
0
INSERT
8
1
2
32767
10
12.7300
20
18.4300
41
0.0180
42
0.0180
0
INSERT
8
1
2
32767
10
12.5600
20
17.1100
41
0.0180
42
0.0180
0
TRACE
8
1
10
12.5652
20
17.1026
11
12.5548
21
17.1174
12
12.7352
22
17.2226
13
12.7248
23
17.2374
0
INSERT
8
1
2
32767
10
12.7300
20
17.2300
41
0.0180
42
0.0180
0
INSERT
8
1
2
32767
10
12.7300
20
18.4300
41
0.0180
42
0.0180
0
TRACE
8
1
10
12.7390
20
18.4300
11
12.7210
21
18.4300
12
12.7390
22
19.3700
13
12.7210
23
19.3700
0
INSERT
8
1
2
32767
10
12.7300
20
19.3700
41
0.0180
42
0.0180
0
INSERT
8
1
2
32767
10
12.6800
20
19.3700
41
0.0180
42
0.0180
0
TRACE
8
1
10
12.6800
20
19.3610
11
12.6800
21
19.3790
12
12.7300
22
19.3610
13
12.7300
23
19.3790
0
INSERT
8
1
2
32767
10
12.7300
20
19.3700
41
0.0180
42
0.0180
0
INSERT
8
1
2
32767
10
12.6900
20
17.3000
41
0.0180
42
0.0180
0
TRACE
8
1
10
12.6990
20
17.3000
11
12.6810
21
17.3000
12
12.6990
22
19.3200
13
12.6810
23
19.3200
0
INSERT
8
1
2
32767
10
12.6900
20
19.3200
41
0.0180
42
0.0180
0
INSERT
8
1
2
32767
10
12.5700
20
17.2200
41
0.0180
42
0.0180
0
TRACE
8
1
10
12.5750
20
17.2125
11
12.5650
21
17.2275
12
12.6950
22
17.2925
13
12.6850
23
17.3075
0
INSERT
8
1
2
32767
10
12.6900
20
17.3000
41
0.0180
42
0.0180
0
INSERT
8
1
2
32767
10
10.9200
20
19.3200
41
0.0180
42
0.0180
0
TRACE
8
1
10
10.9200
20
19.3110
11
10.9200
21
19.3290
12
12.6900
22
19.3110
13
12.6900
23
19.3290
0
INSERT
8
1
2
32767
10
12.6900
20
19.3200
41
0.0180
42
0.0180
0
INSERT
8
1
2
32767
10
12.6500
20
17.5800
41
0.0180
42
0.0180
0
TRACE
8
1
10
12.6590
20
17.5800
11
12.6410
21
17.5800
12
12.6590
22
19.2700
13
12.6410
23
19.2700
0
INSERT
8
1
2
32767
10
12.6500
20
19.2700
41
0.0180
42
0.0180
0
INSERT
8
1
2
32767
10
12.6000
20
18.1700
41
0.0180
42
0.0180
0
TRACE
8
1
10
12.6000
20
18.1610
11
12.6000
21
18.1790
12
12.6500
22
18.1610
13
12.6500
23
18.1790
0
INSERT
8
1
2
32767
10
12.6500
20
18.1700
41
0.0180
42
0.0180
0
INSERT
8
1
2
32767
10
11.7300
20
19.2700
41
0.0180
42
0.0180
0
TRACE
8
1
10
11.7300
20
19.2610
11
11.7300
21
19.2790
12
12.6500
22
19.2610
13
12.6500
23
19.2790
0
INSERT
8
1
2
32767
10
12.6500
20
19.2700
41
0.0180
42
0.0180
0
INSERT
8
1
2
32767
10
11.7300
20
19.2600
41
0.0180
42
0.0180
0
TRACE
8
1
10
11.7390
20
19.2600
11
11.7210
21
19.2600
12
11.7390
22
19.2700
13
11.7210
23
19.2700
0
INSERT
8
1
2
32767
10
11.7300
20
19.2700
41
0.0180
42
0.0180
0
INSERT
8
1
2
32767
10
10.6700
20
18.0900
41
0.0180
42
0.0180
0
TRACE
8
1
10
10.6700
20
18.0810
11
10.6700
21
18.0990
12
10.6900
22
18.0810
13
10.6900
23
18.0990
0
INSERT
8
1
2
32767
10
10.6900
20
18.0900
41
0.0180
42
0.0180
0
INSERT
8
1
2
32767
10
10.6100
20
18.0300
41
0.0180
42
0.0180
0
TRACE
8
1
10
10.6164
20
18.0236
11
10.6036
21
18.0364
12
10.6764
22
18.0836
13
10.6636
23
18.0964
0
INSERT
8
1
2
32767
10
10.6700
20
18.0900
41
0.0180
42
0.0180
0
INSERT
8
1
2
32767
10
10.6100
20
17.6300
41
0.0180
42
0.0180
0
TRACE
8
1
10
10.6190
20
17.6300
11
10.6010
21
17.6300
12
10.6190
22
18.0300
13
10.6010
23
18.0300
0
INSERT
8
1
2
32767
10
10.6100
20
18.0300
41
0.0180
42
0.0180
0
INSERT
8
1
2
32767
10
12.6500
20
17.5700
41
0.0180
42
0.0180
0
TRACE
8
1
10
12.6590
20
17.5700
11
12.6410
21
17.5700
12
12.6590
22
17.5800
13
12.6410
23
17.5800
0
INSERT
8
1
2
32767
10
12.6500
20
17.5800
41
0.0180
42
0.0180
0
INSERT
8
1
2
32767
10
11.9000
20
17.5700
41
0.0180
42
0.0180
0
TRACE
8
1
10
11.9000
20
17.5610
11
11.9000
21
17.5790
12
12.6500
22
17.5610
13
12.6500
23
17.5790
0
INSERT
8
1
2
32767
10
12.6500
20
17.5700
41
0.0180
42
0.0180
0
TEXT
8
1
10
12.6900
20
16.9500
40
0.1000
1
Dev unit V2.0 8/93
50
0.0
71
2
0
TEXT
8
1
10
11.8900
20
17.1200
40
0.1000
1
G0JVU
50
0.0
71
2
0
INSERT
8
2
2
5
10
9.8900
20
18.8900
50
0.0
0
INSERT
8
2
2
5
10
9.8900
20
19.1400
50
0.0
0
INSERT
8
2
2
5
10
9.8200
20
16.9500
50
0.0
0
INSERT
8
2
2
5
10
9.8200
20
17.3500
50
0.0
0
INSERT
8
2
2
5
10
10.3200
20
17.4400
50
0.0
0
INSERT
8
2
2
5
10
9.8200
20
17.4400
50
0.0
0
INSERT
8
2
2
1
10
10.3000
20
18.4000
50
0.0
0
INSERT
8
2
2
1
10
10.3000
20
17.9000
50
0.0
0
INSERT
8
2
2
5
10
10.6100
20
17.1300
50
0.0
0
INSERT
8
2
2
5
10
10.6100
20
17.6300
50
0.0
0
INSERT
8
2
2
5
10
10.6900
20
18.5900
50
0.0
0
INSERT
8
2
2
5
10
10.6900
20
18.4900
50
0.0
0
INSERT
8
2
2
5
10
10.6900
20
18.3900
50
0.0
0
INSERT
8
2
2
5
10
10.6900
20
18.2900
50
0.0
0
INSERT
8
2
2
5
10
10.9900
20
18.5900
50
0.0
0
INSERT
8
2
2
5
10
10.9900
20
18.4900
50
0.0
0
INSERT
8
2
2
5
10
10.9900
20
18.3900
50
0.0
0
INSERT
8
2
2
5
10
10.9900
20
18.2900
50
0.0
0
INSERT
8
2
2
5
10
10.9900
20
18.1900
50
0.0
0
INSERT
8
2
2
5
10
10.9900
20
18.0900
50
0.0
0
INSERT
8
2
2
5
10
10.9900
20
17.9900
50
0.0
0
INSERT
8
2
2
5
10
10.6900
20
18.1900
50
0.0
0
INSERT
8
2
2
5
10
10.6900
20
18.0900
50
0.0
0
INSERT
8
2
2
5
10
10.6900
20
17.9900
50
0.0
0
INSERT
8
2
2
5
10
11.9700
20
19.1200
50
0.0
0
INSERT
8
2
2
5
10
11.9700
20
19.0200
50
0.0
0
INSERT
8
2
2
5
10
11.9700
20
18.9200
50
0.0
0
INSERT
8
2
2
5
10
11.9700
20
18.8200
50
0.0
0
INSERT
8
2
2
5
10
11.9700
20
18.7200
50
0.0
0
INSERT
8
2
2
5
10
11.9700
20
18.6200
50
0.0
0
INSERT
8
2
2
5
10
11.9700
20
18.5200
50
0.0
0
INSERT
8
2
2
5
10
11.9700
20
18.4200
50
0.0
0
INSERT
8
2
2
5
10
12.5700
20
19.1200
50
0.0
0
INSERT
8
2
2
5
10
12.5700
20
19.0200
50
0.0
0
INSERT
8
2
2
5
10
12.5700
20
18.9200
50
0.0
0
INSERT
8
2
2
5
10
12.5700
20
18.8200
50
0.0
0
INSERT
8
2
2
5
10
12.5700
20
18.7200
50
0.0
0
INSERT
8
2
2
5
10
12.5700
20
18.6200
50
0.0
0
INSERT
8
2
2
5
10
12.5700
20
18.5200
50
0.0
0
INSERT
8
2
2
5
10
12.5700
20
18.4200
50
0.0
0
INSERT
8
2
2
5
10
11.9700
20
18.3200
50
0.0
0
INSERT
8
2
2
5
10
11.9700
20
18.2200
50
0.0
0
INSERT
8
2
2
5
10
12.5700
20
18.3200
50
0.0
0
INSERT
8
2
2
5
10
12.5700
20
18.2200
50
0.0
0
INSERT
8
2
2
5
10
11.9700
20
18.1200
50
0.0
0
INSERT
8
2
2
5
10
11.9700
20
18.0200
50
0.0
0
INSERT
8
2
2
5
10
11.9700
20
17.9200
50
0.0
0
INSERT
8
2
2
5
10
11.9700
20
17.8200
50
0.0
0
INSERT
8
2
2
5
10
11.9700
20
17.7200
50
0.0
0
INSERT
8
2
2
5
10
11.9700
20
17.6200
50
0.0
0
INSERT
8
2
2
5
10
11.9700
20
17.5200
50
0.0
0
INSERT
8
2
2
5
10
11.9700
20
17.4200
50
0.0
0
INSERT
8
2
2
5
10
11.9700
20
17.3200
50
0.0
0
INSERT
8
2
2
5
10
12.5700
20
18.1200
50
0.0
0
INSERT
8
2
2
5
10
12.5700
20
18.0200
50
0.0
0
INSERT
8
2
2
5
10
12.5700
20
17.9200
50
0.0
0
INSERT
8
2
2
5
10
12.5700
20
17.8200
50
0.0
0
INSERT
8
2
2
5
10
12.5700
20
17.7200
50
0.0
0
INSERT
8
2
2
5
10
12.5700
20
17.6200
50
0.0
0
INSERT
8
2
2
5
10
12.5700
20
17.5200
50
0.0
0
INSERT
8
2
2
5
10
12.5700
20
17.4200
50
0.0
0
INSERT
8
2
2
5
10
12.5700
20
17.3200
50
0.0
0
INSERT
8
2
2
5
10
11.9700
20
17.2200
50
0.0
0
INSERT
8
2
2
5
10
12.5700
20
17.2200
50
0.0
0
INSERT
8
2
2
5
10
10.9900
20
18.9600
50
0.0
0
INSERT
8
2
2
5
10
11.0900
20
18.9600
50
0.0
0
INSERT
8
2
2
5
10
11.1900
20
18.9600
50
0.0
0
INSERT
8
2
2
5
10
11.2900
20
18.9600
50
0.0
0
INSERT
8
2
2
5
10
10.9900
20
19.2600
50
0.0
0
INSERT
8
2
2
5
10
11.0900
20
19.2600
50
0.0
0
INSERT
8
2
2
5
10
11.1900
20
19.2600
50
0.0
0
INSERT
8
2
2
5
10
11.2900
20
19.2600
50
0.0
0
INSERT
8
2
2
5
10
11.3900
20
19.2600
50
0.0
0
INSERT
8
2
2
5
10
11.4900
20
19.2600
50
0.0
0
INSERT
8
2
2
5
10
11.5900
20
19.2600
50
0.0
0
INSERT
8
2
2
5
10
11.3900
20
18.9600
50
0.0
0
INSERT
8
2
2
5
10
11.4900
20
18.9600
50
0.0
0
INSERT
8
2
2
5
10
11.5900
20
18.9600
50
0.0
0
INSERT
8
2
2
5
10
11.3100
20
18.6000
50
0.0
0
INSERT
8
2
2
5
10
11.3100
20
18.5000
50
0.0
0
INSERT
8
2
2
5
10
11.3100
20
18.4000
50
0.0
0
INSERT
8
2
2
5
10
11.3100
20
18.3000
50
0.0
0
INSERT
8
2
2
5
10
11.3100
20
18.2000
50
0.0
0
INSERT
8
2
2
5
10
11.3100
20
18.1000
50
0.0
0
INSERT
8
2
2
5
10
11.3100
20
18.0000
50
0.0
0
INSERT
8
2
2
5
10
11.3100
20
17.9000
50
0.0
0
INSERT
8
2
2
5
10
11.6100
20
17.9000
50
0.0
0
INSERT
8
2
2
5
10
11.6100
20
18.0000
50
0.0
0
INSERT
8
2
2
5
10
11.6100
20
18.1000
50
0.0
0
INSERT
8
2
2
5
10
11.6100
20
18.2000
50
0.0
0
INSERT
8
2
2
5
10
11.6100
20
18.3000
50
0.0
0
INSERT
8
2
2
5
10
11.6100
20
18.4000
50
0.0
0
INSERT
8
2
2
5
10
11.6100
20
18.5000
50
0.0
0
INSERT
8
2
2
5
10
11.6100
20
18.6000
50
0.0
0
INSERT
8
2
2
5
10
11.3100
20
17.8000
50
0.0
0
INSERT
8
2
2
5
10
11.3100
20
17.7000
50
0.0
0
INSERT
8
2
2
5
10
11.6100
20
17.7000
50
0.0
0
INSERT
8
2
2
5
10
11.6100
20
17.8000
50
0.0
0
INSERT
8
2
2
5
10
9.8900
20
17.5900
50
0.0
0
INSERT
8
2
2
5
10
9.8900
20
17.8400
50
0.0
0
INSERT
8
2
2
5
10
9.9500
20
18.0800
50
0.0
0
INSERT
8
2
2
5
10
10.0500
20
18.1800
50
0.0
0
INSERT
8
2
2
5
10
9.9500
20
18.2800
50
0.0
0
INSERT
8
2
2
1
10
10.7200
20
17.4200
50
0.0
0
INSERT
8
2
2
1
10
11.2200
20
17.4200
50
0.0
0
INSERT
8
2
2
5
10
10.2400
20
17.0300
50
0.0
0
INSERT
8
2
2
5
10
10.1400
20
17.1300
50
0.0
0
INSERT
8
2
2
5
10
10.2400
20
17.2300
50
0.0
0
INSERT
8
2
2
5
10
10.4500
20
17.6400
50
0.0
0
INSERT
8
2
2
5
10
10.4500
20
18.1400
50
0.0
0
INSERT
8
2
2
5
10
11.0700
20
17.1400
50
0.0
0
INSERT
8
2
2
5
10
10.8200
20
17.1400
50
0.0
0
INSERT
8
2
2
1
10
9.7800
20
18.5400
50
0.0
0
INSERT
8
2
2
1
10
10.2800
20
18.5400
50
0.0
0
INSERT
8
2
2
5
10
9.7800
20
18.7300
50
0.0
0
INSERT
8
2
2
5
10
10.2800
20
18.7300
50
0.0
0
INSERT
8
2
2
5
10
10.2100
20
19.1200
50
0.0
0
INSERT
8
2
2
5
10
10.2100
20
19.0200
50
0.0
0
INSERT
8
2
2
5
10
10.2100
20
18.9200
50
0.0
0
INSERT
8
2
2
5
10
11.1600
20
18.3000
50
0.0
0
INSERT
8
2
2
5
10
11.1600
20
18.2000
50
0.0
0
INSERT
8
2
2
5
10
11.1600
20
18.1000
50
0.0
0
INSERT
8
2
2
5
10
11.1400
20
18.7500
50
0.0
0
INSERT
8
2
2
5
10
11.1400
20
18.6500
50
0.0
0
INSERT
8
2
2
5
10
11.8000
20
18.3000
50
0.0
0
INSERT
8
2
2
5
10
11.7100
20
18.3000
50
0.0
0
INSERT
8
2
2
5
10
11.7100
20
17.4100
50
0.0
0
INSERT
8
2
2
5
10
11.8300
20
17.4100
50
0.0
0
INSERT
8
2
2
5
10
11.7700
20
17.5200
50
0.0
0
INSERT
8
2
2
5
10
11.5000
20
17.4200
50
0.0
0
INSERT
8
2
2
5
10
11.4000
20
17.4200
50
0.0
0
INSERT
8
2
2
5
10
11.1600
20
18.4000
50
0.0
0
INSERT
8
2
2
5
10
11.7600
20
18.4200
50
0.0
0
INSERT
8
8
2
32767
10
9.8650
20
19.0700
41
0.0100
42
0.0100
0
TRACE
8
8
10
9.8650
20
19.0650
11
9.8650
21
19.0750
12
9.9150
22
19.0650
13
9.9150
23
19.0750
0
INSERT
8
8
2
32767
10
9.9150
20
19.0700
41
0.0100
42
0.0100
0
INSERT
8
8
2
32767
10
9.8900
20
19.0450
41
0.0100
42
0.0100
0
TRACE
8
8
10
9.8950
20
19.0450
11
9.8850
21
19.0450
12
9.8950
22
19.0950
13
9.8850
23
19.0950
0
INSERT
8
8
2
32767
10
9.8900
20
19.0950
41
0.0100
42
0.0100
0
INSERT
8
8
2
32767
10
9.7700
20
17.0500
41
0.0100
42
0.0100
0
TRACE
8
8
10
9.7700
20
17.0450
11
9.7700
21
17.0550
12
9.8700
22
17.0450
13
9.8700
23
17.0550
0
INSERT
8
8
2
32767
10
9.8700
20
17.0500
41
0.0100
42
0.0100
0
INSERT
8
8
2
32767
10
9.8700
20
17.0500
41
0.0100
42
0.0100
0
TRACE
8
8
10
9.8750
20
17.0500
11
9.8650
21
17.0500
12
9.8750
22
17.2500
13
9.8650
23
17.2500
0
INSERT
8
8
2
32767
10
9.8700
20
17.2500
41
0.0100
42
0.0100
0
INSERT
8
8
2
32767
10
9.7700
20
17.2500
41
0.0100
42
0.0100
0
TRACE
8
8
10
9.7700
20
17.2450
11
9.7700
21
17.2550
12
9.8700
22
17.2450
13
9.8700
23
17.2550
0
INSERT
8
8
2
32767
10
9.8700
20
17.2500
41
0.0100
42
0.0100
0
INSERT
8
8
2
32767
10
9.7700
20
17.0500
41
0.0100
42
0.0100
0
TRACE
8
8
10
9.7750
20
17.0500
11
9.7650
21
17.0500
12
9.7750
22
17.2500
13
9.7650
23
17.2500
0
INSERT
8
8
2
32767
10
9.7700
20
17.2500
41
0.0100
42
0.0100
0
INSERT
8
8
2
32767
10
10.2200
20
17.3900
41
0.0100
42
0.0100
0
TRACE
8
8
10
10.2250
20
17.3900
11
10.2150
21
17.3900
12
10.2250
22
17.4900
13
10.2150
23
17.4900
0
INSERT
8
8
2
32767
10
10.2200
20
17.4900
41
0.0100
42
0.0100
0
INSERT
8
8
2
32767
10
9.9200
20
17.4900
41
0.0100
42
0.0100
0
TRACE
8
8
10
9.9200
20
17.4850
11
9.9200
21
17.4950
12
10.2200
22
17.4850
13
10.2200
23
17.4950
0
INSERT
8
8
2
32767
10
10.2200
20
17.4900
41
0.0100
42
0.0100
0
INSERT
8
8
2
32767
10
9.9200
20
17.3900
41
0.0100
42
0.0100
0
TRACE
8
8
10
9.9250
20
17.3900
11
9.9150
21
17.3900
12
9.9250
22
17.4900
13
9.9150
23
17.4900
0
INSERT
8
8
2
32767
10
9.9200
20
17.4900
41
0.0100
42
0.0100
0
INSERT
8
8
2
32767
10
9.9200
20
17.3900
41
0.0100
42
0.0100
0
TRACE
8
8
10
9.9200
20
17.3850
11
9.9200
21
17.3950
12
10.2200
22
17.3850
13
10.2200
23
17.3950
0
INSERT
8
8
2
32767
10
10.2200
20
17.3900
41
0.0100
42
0.0100
0
INSERT
8
8
2
32767
10
10.3500
20
18.0000
41
0.0100
42
0.0100
0
TRACE
8
8
10
10.3550
20
18.0000
11
10.3450
21
18.0000
12
10.3550
22
18.3000
13
10.3450
23
18.3000
0
INSERT
8
8
2
32767
10
10.3500
20
18.3000
41
0.0100
42
0.0100
0
INSERT
8
8
2
32767
10
10.2500
20
18.0000
41
0.0100
42
0.0100
0
TRACE
8
8
10
10.2500
20
17.9950
11
10.2500
21
18.0050
12
10.3500
22
17.9950
13
10.3500
23
18.0050
0
INSERT
8
8
2
32767
10
10.3500
20
18.0000
41
0.0100
42
0.0100
0
INSERT
8
8
2
32767
10
10.2500
20
18.0000
41
0.0100
42
0.0100
0
TRACE
8
8
10
10.2550
20
18.0000
11
10.2450
21
18.0000
12
10.2550
22
18.3000
13
10.2450
23
18.3000
0
INSERT
8
8
2
32767
10
10.2500
20
18.3000
41
0.0100
42
0.0100
0
INSERT
8
8
2
32767
10
10.2500
20
18.3000
41
0.0100
42
0.0100
0
TRACE
8
8
10
10.2500
20
18.2950
11
10.2500
21
18.3050
12
10.3500
22
18.2950
13
10.3500
23
18.3050
0
INSERT
8
8
2
32767
10
10.3500
20
18.3000
41
0.0100
42
0.0100
0
INSERT
8
8
2
32767
10
10.5600
20
17.2300
41
0.0100
42
0.0100
0
TRACE
8
8
10
10.5600
20
17.2250
11
10.5600
21
17.2350
12
10.6600
22
17.2250
13
10.6600
23
17.2350
0
INSERT
8
8
2
32767
10
10.6600
20
17.2300
41
0.0100
42
0.0100
0
INSERT
8
8
2
32767
10
10.6600
20
17.2300
41
0.0100
42
0.0100
0
TRACE
8
8
10
10.6650
20
17.2300
11
10.6550
21
17.2300
12
10.6650
22
17.5300
13
10.6550
23
17.5300
0
INSERT
8
8
2
32767
10
10.6600
20
17.5300
41
0.0100
42
0.0100
0
INSERT
8
8
2
32767
10
10.5600
20
17.5300
41
0.0100
42
0.0100
0
TRACE
8
8
10
10.5600
20
17.5250
11
10.5600
21
17.5350
12
10.6600
22
17.5250
13
10.6600
23
17.5350
0
INSERT
8
8
2
32767
10
10.6600
20
17.5300
41
0.0100
42
0.0100
0
INSERT
8
8
2
32767
10
10.5600
20
17.2300
41
0.0100
42
0.0100
0
TRACE
8
8
10
10.5650
20
17.2300
11
10.5550
21
17.2300
12
10.5650
22
17.5300
13
10.5550
23
17.5300
0
INSERT
8
8
2
32767
10
10.5600
20
17.5300
41
0.0100
42
0.0100
0
INSERT
8
8
2
32767
10
10.9300
20
17.8900
41
0.0100
42
0.0100
0
TRACE
8
8
10
10.9350
20
17.8900
11
10.9250
21
17.8900
12
10.9350
22
18.6900
13
10.9250
23
18.6900
0
INSERT
8
8
2
32767
10
10.9300
20
18.6900
41
0.0100
42
0.0100
0
INSERT
8
8
2
32767
10
10.7500
20
17.8900
41
0.0100
42
0.0100
0
TRACE
8
8
10
10.7500
20
17.8850
11
10.7500
21
17.8950
12
10.9300
22
17.8850
13
10.9300
23
17.8950
0
INSERT
8
8
2
32767
10
10.9300
20
17.8900
41
0.0100
42
0.0100
0
INSERT
8
8
2
32767
10
10.7500
20
17.8900
41
0.0100
42
0.0100
0
TRACE
8
8
10
10.7550
20
17.8900
11
10.7450
21
17.8900
12
10.7550
22
18.6900
13
10.7450
23
18.6900
0
INSERT
8
8
2
32767
10
10.7500
20
18.6900
41
0.0100
42
0.0100
0
INSERT
8
8
2
32767
10
10.8800
20
18.6900
41
0.0100
42
0.0100
0
TRACE
8
8
10
10.8800
20
18.6850
11
10.8800
21
18.6950
12
10.9300
22
18.6850
13
10.9300
23
18.6950
0
INSERT
8
8
2
32767
10
10.9300
20
18.6900
41
0.0100
42
0.0100
0
INSERT
8
8
2
32767
10
10.7500
20
18.6900
41
0.0100
42
0.0100
0
TRACE
8
8
10
10.7500
20
18.6850
11
10.7500
21
18.6950
12
10.8000
22
18.6850
13
10.8000
23
18.6950
0
INSERT
8
8
2
32767
10
10.8000
20
18.6900
41
0.0100
42
0.0100
0
INSERT
8
8
2
32767
10
12.3100
20
19.2200
41
0.0100
42
0.0100
0
TRACE
8
8
10
12.3100
20
19.2150
11
12.3100
21
19.2250
12
12.5100
22
19.2150
13
12.5100
23
19.2250
0
INSERT
8
8
2
32767
10
12.5100
20
19.2200
41
0.0100
42
0.0100
0
INSERT
8
8
2
32767
10
12.0300
20
19.2200
41
0.0100
42
0.0100
0
TRACE
8
8
10
12.0300
20
19.2150
11
12.0300
21
19.2250
12
12.2300
22
19.2150
13
12.2300
23
19.2250
0
INSERT
8
8
2
32767
10
12.2300
20
19.2200
41
0.0100
42
0.0100
0
INSERT
8
8
2
32767
10
12.5100
20
17.1200
41
0.0100
42
0.0100
0
TRACE
8
8
10
12.5150
20
17.1200
11
12.5050
21
17.1200
12
12.5150
22
19.2200
13
12.5050
23
19.2200
0
INSERT
8
8
2
32767
10
12.5100
20
19.2200
41
0.0100
42
0.0100
0
INSERT
8
8
2
32767
10
12.0300
20
17.1200
41
0.0100
42
0.0100
0
TRACE
8
8
10
12.0300
20
17.1150
11
12.0300
21
17.1250
12
12.5100
22
17.1150
13
12.5100
23
17.1250
0
INSERT
8
8
2
32767
10
12.5100
20
17.1200
41
0.0100
42
0.0100
0
INSERT
8
8
2
32767
10
12.0300
20
17.1200
41
0.0100
42
0.0100
0
TRACE
8
8
10
12.0350
20
17.1200
11
12.0250
21
17.1200
12
12.0350
22
19.2200
13
12.0250
23
19.2200
0
INSERT
8
8
2
32767
10
12.0300
20
19.2200
41
0.0100
42
0.0100
0
INSERT
8
8
2
32767
10
10.8900
20
19.2000
41
0.0100
42
0.0100
0
TRACE
8
8
10
10.8900
20
19.1950
11
10.8900
21
19.2050
12
11.6900
22
19.1950
13
11.6900
23
19.2050
0
INSERT
8
8
2
32767
10
11.6900
20
19.2000
41
0.0100
42
0.0100
0
INSERT
8
8
2
32767
10
11.6900
20
19.0200
41
0.0100
42
0.0100
0
TRACE
8
8
10
11.6950
20
19.0200
11
11.6850
21
19.0200
12
11.6950
22
19.2000
13
11.6850
23
19.2000
0
INSERT
8
8
2
32767
10
11.6900
20
19.2000
41
0.0100
42
0.0100
0
INSERT
8
8
2
32767
10
10.8900
20
19.0200
41
0.0100
42
0.0100
0
TRACE
8
8
10
10.8900
20
19.0150
11
10.8900
21
19.0250
12
11.6900
22
19.0150
13
11.6900
23
19.0250
0
INSERT
8
8
2
32767
10
11.6900
20
19.0200
41
0.0100
42
0.0100
0
INSERT
8
8
2
32767
10
10.8900
20
19.1500
41
0.0100
42
0.0100
0
TRACE
8
8
10
10.8950
20
19.1500
11
10.8850
21
19.1500
12
10.8950
22
19.2000
13
10.8850
23
19.2000
0
INSERT
8
8
2
32767
10
10.8900
20
19.2000
41
0.0100
42
0.0100
0
INSERT
8
8
2
32767
10
10.8900
20
19.0200
41
0.0100
42
0.0100
0
TRACE
8
8
10
10.8950
20
19.0200
11
10.8850
21
19.0200
12
10.8950
22
19.0700
13
10.8850
23
19.0700
0
INSERT
8
8
2
32767
10
10.8900
20
19.0700
41
0.0100
42
0.0100
0
INSERT
8
8
2
32767
10
11.3700
20
18.6500
41
0.0100
42
0.0100
0
TRACE
8
8
10
11.3700
20
18.6450
11
11.3700
21
18.6550
12
11.4200
22
18.6450
13
11.4200
23
18.6550
0
INSERT
8
8
2
32767
10
11.4200
20
18.6500
41
0.0100
42
0.0100
0
INSERT
8
8
2
32767
10
11.5000
20
18.6500
41
0.0100
42
0.0100
0
TRACE
8
8
10
11.5000
20
18.6450
11
11.5000
21
18.6550
12
11.5500
22
18.6450
13
11.5500
23
18.6550
0
INSERT
8
8
2
32767
10
11.5500
20
18.6500
41
0.0100
42
0.0100
0
INSERT
8
8
2
32767
10
11.5500
20
17.6500
41
0.0100
42
0.0100
0
TRACE
8
8
10
11.5550
20
17.6500
11
11.5450
21
17.6500
12
11.5550
22
18.6500
13
11.5450
23
18.6500
0
INSERT
8
8
2
32767
10
11.5500
20
18.6500
41
0.0100
42
0.0100
0
INSERT
8
8
2
32767
10
11.3700
20
17.6500
41
0.0100
42
0.0100
0
TRACE
8
8
10
11.3700
20
17.6450
11
11.3700
21
17.6550
12
11.5500
22
17.6450
13
11.5500
23
17.6550
0
INSERT
8
8
2
32767
10
11.5500
20
17.6500
41
0.0100
42
0.0100
0
INSERT
8
8
2
32767
10
11.3700
20
17.6500
41
0.0100
42
0.0100
0
TRACE
8
8
10
11.3750
20
17.6500
11
11.3650
21
17.6500
12
11.3750
22
18.6500
13
11.3650
23
18.6500
0
INSERT
8
8
2
32767
10
11.3700
20
18.6500
41
0.0100
42
0.0100
0
INSERT
8
8
2
32767
10
9.8650
20
17.9400
41
0.0100
42
0.0100
0
TRACE
8
8
10
9.8650
20
17.9350
11
9.8650
21
17.9450
12
9.9150
22
17.9350
13
9.9150
23
17.9450
0
INSERT
8
8
2
32767
10
9.9150
20
17.9400
41
0.0100
42
0.0100
0
INSERT
8
8
2
32767
10
9.8900
20
17.9150
41
0.0100
42
0.0100
0
TRACE
8
8
10
9.8950
20
17.9150
11
9.8850
21
17.9150
12
9.8950
22
17.9650
13
9.8850
23
17.9650
0
INSERT
8
8
2
32767
10
9.8900
20
17.9650
41
0.0100
42
0.0100
0
INSERT
8
8
2
32767
10
10.1500
20
17.9800
41
0.0100
42
0.0100
0
TRACE
8
8
10
10.1550
20
17.9800
11
10.1450
21
17.9800
12
10.1550
22
18.3800
13
10.1450
23
18.3800
0
INSERT
8
8
2
32767
10
10.1500
20
18.3800
41
0.0100
42
0.0100
0
INSERT
8
8
2
32767
10
9.7500
20
18.3800
41
0.0100
42
0.0100
0
TRACE
8
8
10
9.7500
20
18.3750
11
9.7500
21
18.3850
12
10.1500
22
18.3750
13
10.1500
23
18.3850
0
INSERT
8
8
2
32767
10
10.1500
20
18.3800
41
0.0100
42
0.0100
0
INSERT
8
8
2
32767
10
9.7500
20
17.9800
41
0.0100
42
0.0100
0
TRACE
8
8
10
9.7550
20
17.9800
11
9.7450
21
17.9800
12
9.7550
22
18.3800
13
9.7450
23
18.3800
0
INSERT
8
8
2
32767
10
9.7500
20
18.3800
41
0.0100
42
0.0100
0
INSERT
8
8
2
32767
10
9.7500
20
17.9800
41
0.0100
42
0.0100
0
TRACE
8
8
10
9.7500
20
17.9750
11
9.7500
21
17.9850
12
10.1500
22
17.9750
13
10.1500
23
17.9850
0
INSERT
8
8
2
32767
10
10.1500
20
17.9800
41
0.0100
42
0.0100
0
INSERT
8
8
2
32767
10
9.9000
20
18.1800
41
0.0100
42
0.0100
0
TRACE
8
8
10
9.9000
20
18.1750
11
9.9000
21
18.1850
12
10.0000
22
18.1750
13
10.0000
23
18.1850
0
INSERT
8
8
2
32767
10
10.0000
20
18.1800
41
0.0100
42
0.0100
0
INSERT
8
8
2
32767
10
10.8200
20
17.4700
41
0.0100
42
0.0100
0
TRACE
8
8
10
10.8200
20
17.4650
11
10.8200
21
17.4750
12
11.1200
22
17.4650
13
11.1200
23
17.4750
0
INSERT
8
8
2
32767
10
11.1200
20
17.4700
41
0.0100
42
0.0100
0
INSERT
8
8
2
32767
10
11.1200
20
17.3700
41
0.0100
42
0.0100
0
TRACE
8
8
10
11.1250
20
17.3700
11
11.1150
21
17.3700
12
11.1250
22
17.4700
13
11.1150
23
17.4700
0
INSERT
8
8
2
32767
10
11.1200
20
17.4700
41
0.0100
42
0.0100
0
INSERT
8
8
2
32767
10
10.8200
20
17.3700
41
0.0100
42
0.0100
0
TRACE
8
8
10
10.8200
20
17.3650
11
10.8200
21
17.3750
12
11.1200
22
17.3650
13
11.1200
23
17.3750
0
INSERT
8
8
2
32767
10
11.1200
20
17.3700
41
0.0100
42
0.0100
0
INSERT
8
8
2
32767
10
10.8200
20
17.3700
41
0.0100
42
0.0100
0
TRACE
8
8
10
10.8250
20
17.3700
11
10.8150
21
17.3700
12
10.8250
22
17.4700
13
10.8150
23
17.4700
0
INSERT
8
8
2
32767
10
10.8200
20
17.4700
41
0.0100
42
0.0100
0
INSERT
8
8
2
32767
10
10.1900
20
17.1300
41
0.0100
42
0.0100
0
TRACE
8
8
10
10.1900
20
17.1250
11
10.1900
21
17.1350
12
10.2900
22
17.1250
13
10.2900
23
17.1350
0
INSERT
8
8
2
32767
10
10.2900
20
17.1300
41
0.0100
42
0.0100
0
INSERT
8
8
2
32767
10
10.0400
20
17.3300
41
0.0100
42
0.0100
0
TRACE
8
8
10
10.0400
20
17.3250
11
10.0400
21
17.3350
12
10.4400
22
17.3250
13
10.4400
23
17.3350
0
INSERT
8
8
2
32767
10
10.4400
20
17.3300
41
0.0100
42
0.0100
0
INSERT
8
8
2
32767
10
10.4400
20
16.9300
41
0.0100
42
0.0100
0
TRACE
8
8
10
10.4450
20
16.9300
11
10.4350
21
16.9300
12
10.4450
22
17.3300
13
10.4350
23
17.3300
0
INSERT
8
8
2
32767
10
10.4400
20
17.3300
41
0.0100
42
0.0100
0
INSERT
8
8
2
32767
10
10.0400
20
16.9300
41
0.0100
42
0.0100
0
TRACE
8
8
10
10.0400
20
16.9250
11
10.0400
21
16.9350
12
10.4400
22
16.9250
13
10.4400
23
16.9350
0
INSERT
8
8
2
32767
10
10.4400
20
16.9300
41
0.0100
42
0.0100
0
INSERT
8
8
2
32767
10
10.0400
20
16.9300
41
0.0100
42
0.0100
0
TRACE
8
8
10
10.0450
20
16.9300
11
10.0350
21
16.9300
12
10.0450
22
17.3300
13
10.0350
23
17.3300
0
INSERT
8
8
2
32767
10
10.0400
20
17.3300
41
0.0100
42
0.0100
0
INSERT
8
8
2
32767
10
10.4000
20
17.7400
41
0.0100
42
0.0100
0
TRACE
8
8
10
10.4000
20
17.7350
11
10.4000
21
17.7450
12
10.5000
22
17.7350
13
10.5000
23
17.7450
0
INSERT
8
8
2
32767
10
10.5000
20
17.7400
41
0.0100
42
0.0100
0
INSERT
8
8
2
32767
10
10.5000
20
17.7400
41
0.0100
42
0.0100
0
TRACE
8
8
10
10.5050
20
17.7400
11
10.4950
21
17.7400
12
10.5050
22
18.0400
13
10.4950
23
18.0400
0
INSERT
8
8
2
32767
10
10.5000
20
18.0400
41
0.0100
42
0.0100
0
INSERT
8
8
2
32767
10
10.4000
20
18.0400
41
0.0100
42
0.0100
0
TRACE
8
8
10
10.4000
20
18.0350
11
10.4000
21
18.0450
12
10.5000
22
18.0350
13
10.5000
23
18.0450
0
INSERT
8
8
2
32767
10
10.5000
20
18.0400
41
0.0100
42
0.0100
0
INSERT
8
8
2
32767
10
10.4000
20
17.7400
41
0.0100
42
0.0100
0
TRACE
8
8
10
10.4050
20
17.7400
11
10.3950
21
17.7400
12
10.4050
22
18.0400
13
10.3950
23
18.0400
0
INSERT
8
8
2
32767
10
10.4000
20
18.0400
41
0.0100
42
0.0100
0
INSERT
8
8
2
32767
10
10.7200
20
17.1150
41
0.0100
42
0.0100
0
TRACE
8
8
10
10.7250
20
17.1150
11
10.7150
21
17.1150
12
10.7250
22
17.1650
13
10.7150
23
17.1650
0
INSERT
8
8
2
32767
10
10.7200
20
17.1650
41
0.0100
42
0.0100
0
INSERT
8
8
2
32767
10
10.6950
20
17.1400
41
0.0100
42
0.0100
0
TRACE
8
8
10
10.6950
20
17.1350
11
10.6950
21
17.1450
12
10.7450
22
17.1350
13
10.7450
23
17.1450
0
INSERT
8
8
2
32767
10
10.7450
20
17.1400
41
0.0100
42
0.0100
0
INSERT
8
8
2
32767
10
9.8800
20
18.5900
41
0.0100
42
0.0100
0
TRACE
8
8
10
9.8800
20
18.5850
11
9.8800
21
18.5950
12
10.1800
22
18.5850
13
10.1800
23
18.5950
0
INSERT
8
8
2
32767
10
10.1800
20
18.5900
41
0.0100
42
0.0100
0
INSERT
8
8
2
32767
10
10.1800
20
18.4900
41
0.0100
42
0.0100
0
TRACE
8
8
10
10.1850
20
18.4900
11
10.1750
21
18.4900
12
10.1850
22
18.5900
13
10.1750
23
18.5900
0
INSERT
8
8
2
32767
10
10.1800
20
18.5900
41
0.0100
42
0.0100
0
INSERT
8
8
2
32767
10
9.8800
20
18.4900
41
0.0100
42
0.0100
0
TRACE
8
8
10
9.8800
20
18.4850
11
9.8800
21
18.4950
12
10.1800
22
18.4850
13
10.1800
23
18.4950
0
INSERT
8
8
2
32767
10
10.1800
20
18.4900
41
0.0100
42
0.0100
0
INSERT
8
8
2
32767
10
9.8800
20
18.4900
41
0.0100
42
0.0100
0
TRACE
8
8
10
9.8850
20
18.4900
11
9.8750
21
18.4900
12
9.8850
22
18.5900
13
9.8750
23
18.5900
0
INSERT
8
8
2
32767
10
9.8800
20
18.5900
41
0.0100
42
0.0100
0
INSERT
8
8
2
32767
10
9.8800
20
18.6800
41
0.0100
42
0.0100
0
TRACE
8
8
10
9.8850
20
18.6800
11
9.8750
21
18.6800
12
9.8850
22
18.7800
13
9.8750
23
18.7800
0
INSERT
8
8
2
32767
10
9.8800
20
18.7800
41
0.0100
42
0.0100
0
INSERT
8
8
2
32767
10
9.8800
20
18.6800
41
0.0100
42
0.0100
0
TRACE
8
8
10
9.8800
20
18.6750
11
9.8800
21
18.6850
12
10.1800
22
18.6750
13
10.1800
23
18.6850
0
INSERT
8
8
2
32767
10
10.1800
20
18.6800
41
0.0100
42
0.0100
0
INSERT
8
8
2
32767
10
10.1800
20
18.6800
41
0.0100
42
0.0100
0
TRACE
8
8
10
10.1850
20
18.6800
11
10.1750
21
18.6800
12
10.1850
22
18.7800
13
10.1750
23
18.7800
0
INSERT
8
8
2
32767
10
10.1800
20
18.7800
41
0.0100
42
0.0100
0
INSERT
8
8
2
32767
10
9.8800
20
18.7800
41
0.0100
42
0.0100
0
TRACE
8
8
10
9.8800
20
18.7750
11
9.8800
21
18.7850
12
10.1800
22
18.7750
13
10.1800
23
18.7850
0
INSERT
8
8
2
32767
10
10.1800
20
18.7800
41
0.0100
42
0.0100
0
INSERT
8
8
2
32767
10
10.2350
20
19.1700
41
0.0100
42
0.0100
0
TRACE
8
8
10
10.2315
20
19.1665
11
10.2385
21
19.1735
12
10.2565
22
19.1415
13
10.2635
23
19.1485
0
INSERT
8
8
2
32767
10
10.2600
20
19.1450
41
0.0100
42
0.0100
0
INSERT
8
8
2
32767
10
10.1600
20
19.1450
41
0.0100
42
0.0100
0
TRACE
8
8
10
10.1635
20
19.1415
11
10.1565
21
19.1485
12
10.1885
22
19.1665
13
10.1815
23
19.1735
0
INSERT
8
8
2
32767
10
10.1850
20
19.1700
41
0.0100
42
0.0100
0
INSERT
8
8
2
32767
10
10.1600
20
18.8950
41
0.0100
42
0.0100
0
TRACE
8
8
10
10.1565
20
18.8915
11
10.1635
21
18.8985
12
10.1815
22
18.8665
13
10.1885
23
18.8735
0
INSERT
8
8
2
32767
10
10.1850
20
18.8700
41
0.0100
42
0.0100
0
INSERT
8
8
2
32767
10
10.2350
20
18.8700
41
0.0100
42
0.0100
0
TRACE
8
8
10
10.2385
20
18.8665
11
10.2315
21
18.8735
12
10.2635
22
18.8915
13
10.2565
23
18.8985
0
INSERT
8
8
2
32767
10
10.2600
20
18.8950
41
0.0100
42
0.0100
0
INSERT
8
8
2
32767
10
10.2600
20
18.8950
41
0.0100
42
0.0100
0
TRACE
8
8
10
10.2650
20
18.8950
11
10.2550
21
18.8950
12
10.2650
22
19.1450
13
10.2550
23
19.1450
0
INSERT
8
8
2
32767
10
10.2600
20
19.1450
41
0.0100
42
0.0100
0
INSERT
8
8
2
32767
10
10.1600
20
18.8950
41
0.0100
42
0.0100
0
TRACE
8
8
10
10.1650
20
18.8950
11
10.1550
21
18.8950
12
10.1650
22
19.1450
13
10.1550
23
19.1450
0
INSERT
8
8
2
32767
10
10.1600
20
19.1450
41
0.0100
42
0.0100
0
INSERT
8
8
2
32767
10
10.1900
20
19.1700
41
0.0100
42
0.0100
0
TRACE
8
8
10
10.1900
20
19.1650
11
10.1900
21
19.1750
12
10.2300
22
19.1650
13
10.2300
23
19.1750
0
INSERT
8
8
2
32767
10
10.2300
20
19.1700
41
0.0100
42
0.0100
0
INSERT
8
8
2
32767
10
10.1900
20
18.8700
41
0.0100
42
0.0100
0
TRACE
8
8
10
10.1900
20
18.8650
11
10.1900
21
18.8750
12
10.2300
22
18.8650
13
10.2300
23
18.8750
0
INSERT
8
8
2
32767
10
10.2300
20
18.8700
41
0.0100
42
0.0100
0
INSERT
8
8
2
32767
10
11.3800
20
17.3600
41
0.0100
42
0.0100
0
TRACE
8
8
10
11.3800
20
17.3550
11
11.3800
21
17.3650
12
11.5200
22
17.3550
13
11.5200
23
17.3650
0
INSERT
8
8
2
32767
10
11.5200
20
17.3600
41
0.0100
42
0.0100
0
INSERT
8
8
2
32767
10
11.3800
20
17.4800
41
0.0100
42
0.0100
0
TRACE
8
8
10
11.3800
20
17.4750
11
11.3800
21
17.4850
12
11.5200
22
17.4750
13
11.5200
23
17.4850
0
INSERT
8
8
2
32767
10
11.5200
20
17.4800
41
0.0100
42
0.0100
0
INSERT
8
8
2
32767
10
11.1400
20
18.6500
41
0.0180
42
0.0180
0
TRACE
8
8
10
11.1490
20
18.6500
11
11.1310
21
18.6500
12
11.1490
22
18.7500
13
11.1310
23
18.7500
0
INSERT
8
8
2
32767
10
11.1400
20
18.7500
41
0.0180
42
0.0180
0
INSERT
8
8
2
32767
10
11.7700
20
17.5400
41
0.0180
42
0.0180
0
TRACE
8
8
10
11.7636
20
17.5336
11
11.7764
21
17.5464
12
11.7736
22
17.5236
13
11.7864
23
17.5364
0
INSERT
8
8
2
32767
10
11.7800
20
17.5300
41
0.0180
42
0.0180
0
INSERT
8
8
2
32767
10
11.8100
20
17.4300
41
0.0180
42
0.0180
0
TRACE
8
8
10
11.8036
20
17.4236
11
11.8164
21
17.4364
12
11.8236
22
17.4036
13
11.8364
23
17.4164
0
INSERT
8
8
2
32767
10
11.8300
20
17.4100
41
0.0180
42
0.0180
0
INSERT
8
8
2
32767
10
11.7100
20
17.4100
41
0.0180
42
0.0180
0
TRACE
8
8
10
11.7190
20
17.4100
11
11.7010
21
17.4100
12
11.7190
22
18.3000
13
11.7010
23
18.3000
0
INSERT
8
8
2
32767
10
11.7100
20
18.3000
41
0.0180
42
0.0180
0
INSERT
8
8
2
32767
10
11.8000
20
18.2400
41
0.0180
42
0.0180
0
TRACE
8
8
10
11.8090
20
18.2400
11
11.7910
21
18.2400
12
11.8090
22
18.3000
13
11.7910
23
18.3000
0
INSERT
8
8
2
32767
10
11.8000
20
18.3000
41
0.0180
42
0.0180
0
INSERT
8
8
2
32767
10
11.8000
20
18.2300
41
0.0180
42
0.0180
0
TRACE
8
8
10
11.8090
20
18.2300
11
11.7910
21
18.2300
12
11.8090
22
18.2400
13
11.7910
23
18.2400
0
INSERT
8
8
2
32767
10
11.8000
20
18.2400
41
0.0180
42
0.0180
0
INSERT
8
8
2
32767
10
11.8000
20
18.2300
41
0.0180
42
0.0180
0
TRACE
8
8
10
11.7936
20
18.2236
11
11.8064
21
18.2364
12
11.8136
22
18.2036
13
11.8264
23
18.2164
0
INSERT
8
8
2
32767
10
11.8200
20
18.2100
41
0.0180
42
0.0180
0
INSERT
8
8
2
32767
10
11.8200
20
18.2100
41
0.0180
42
0.0180
0
TRACE
8
8
10
11.8136
20
18.2036
11
11.8264
21
18.2164
12
11.8236
22
18.1936
13
11.8364
23
18.2064
0
INSERT
8
8
2
32767
10
11.8300
20
18.2000
41
0.0180
42
0.0180
0
INSERT
8
8
2
32767
10
11.8300
20
17.4100
41
0.0180
42
0.0180
0
TRACE
8
8
10
11.8390
20
17.4100
11
11.8210
21
17.4100
12
11.8390
22
18.2000
13
11.8210
23
18.2000
0
INSERT
8
8
2
32767
10
11.8300
20
18.2000
41
0.0180
42
0.0180
0
INSERT
8
8
2
32767
10
11.7600
20
17.5500
41
0.0180
42
0.0180
0
TRACE
8
8
10
11.7690
20
17.5500
11
11.7510
21
17.5500
12
11.7690
22
18.4200
13
11.7510
23
18.4200
0
INSERT
8
8
2
32767
10
11.7600
20
18.4200
41
0.0180
42
0.0180
0
INSERT
8
8
2
32767
10
11.7600
20
17.5500
41
0.0180
42
0.0180
0
TRACE
8
8
10
11.7536
20
17.5436
11
11.7664
21
17.5564
12
11.7636
22
17.5336
13
11.7764
23
17.5464
0
INSERT
8
8
2
32767
10
11.7700
20
17.5400
41
0.0180
42
0.0180
0
INSERT
8
8
2
32767
10
11.7700
20
17.5200
41
0.0180
42
0.0180
0
TRACE
8
8
10
11.7790
20
17.5200
11
11.7610
21
17.5200
12
11.7790
22
17.5400
13
11.7610
23
17.5400
0
INSERT
8
8
2
32767
10
11.7700
20
17.5400
41
0.0180
42
0.0180
0
TRACE
8
8
10
10.2500
20
18.2500
11
10.2500
21
18.3000
12
10.3500
22
18.2500
13
10.3500
23
18.3000
0
TRACE
8
8
10
10.8200
20
17.3700
11
10.8200
21
17.4700
12
10.8700
22
17.3700
13
10.8700
23
17.4700
0
TRACE
8
8
10
9.8800
20
18.4900
11
9.8800
21
18.5900
12
9.9300
22
18.4900
13
9.9300
23
18.5900
0
POLYLINE
8
8
66
1
40
0.0100
41
0.0100
0
VERTEX
8
8
10
9.890000
20
19.190000
42
1.000000
0
VERTEX
8
8
10
9.890000
20
18.840000
42
1.000000
0
VERTEX
8
8
10
9.890000
20
19.190000
42
1.000000
0
SEQEND
0
INSERT
8
8
2
32767
10
10.8000
20
18.6900
41
0.0100
42
0.0100
0
POLYLINE
8
8
66
1
40
0.0100
41
0.0100
0
VERTEX
8
8
10
10.800000
20
18.690000
42
1.000000
0
VERTEX
8
8
10
10.880000
20
18.690000
42
1.000000
0
SEQEND
0
INSERT
8
8
2
32767
10
10.8800
20
18.6900
41
0.0100
42
0.0100
0
INSERT
8
8
2
32767
10
12.2300
20
19.2200
41
0.0100
42
0.0100
0
POLYLINE
8
8
66
1
40
0.0100
41
0.0100
0
VERTEX
8
8
10
12.230000
20
19.220000
42
1.000000
0
VERTEX
8
8
10
12.310000
20
19.220000
42
1.000000
0
SEQEND
0
INSERT
8
8
2
32767
10
12.3100
20
19.2200
41
0.0100
42
0.0100
0
INSERT
8
8
2
32767
10
10.8900
20
19.0700
41
0.0100
42
0.0100
0
POLYLINE
8
8
66
1
40
0.0100
41
0.0100
0
VERTEX
8
8
10
10.890000
20
19.070000
42
1.000000
0
VERTEX
8
8
10
10.890000
20
19.150000
42
1.000000
0
SEQEND
0
INSERT
8
8
2
32767
10
10.8900
20
19.1500
41
0.0100
42
0.0100
0
INSERT
8
8
2
32767
10
11.4200
20
18.6500
41
0.0100
42
0.0100
0
POLYLINE
8
8
66
1
40
0.0100
41
0.0100
0
VERTEX
8
8
10
11.420000
20
18.650000
42
1.000000
0
VERTEX
8
8
10
11.500000
20
18.650000
42
1.000000
0
SEQEND
0
INSERT
8
8
2
32767
10
11.5000
20
18.6500
41
0.0100
42
0.0100
0
POLYLINE
8
8
66
1
40
0.0100
41
0.0100
0
VERTEX
8
8
10
9.890000
20
17.540000
42
1.000000
0
VERTEX
8
8
10
9.890000
20
17.890000
42
1.000000
0
VERTEX
8
8
10
9.890000
20
17.540000
42
1.000000
0
SEQEND
0
POLYLINE
8
8
66
1
40
0.0100
41
0.0100
0
VERTEX
8
8
10
9.900000
20
18.180000
42
1.000000
0
VERTEX
8
8
10
10.000000
20
18.180000
42
1.000000
0
VERTEX
8
8
10
9.900000
20
18.180000
42
1.000000
0
SEQEND
0
POLYLINE
8
8
66
1
40
0.0100
41
0.0100
0
VERTEX
8
8
10
10.290000
20
17.130000
42
1.000000
0
VERTEX
8
8
10
10.190000
20
17.130000
42
1.000000
0
VERTEX
8
8
10
10.290000
20
17.130000
42
1.000000
0
SEQEND
0
POLYLINE
8
8
66
1
40
0.0100
41
0.0100
0
VERTEX
8
8
10
11.120000
20
17.140000
42
1.000000
0
VERTEX
8
8
10
10.770000
20
17.140000
42
1.000000
0
VERTEX
8
8
10
11.120000
20
17.140000
42
1.000000
0
SEQEND
0
INSERT
8
8
2
32767
10
11.5200
20
17.3600
41
0.0100
42
0.0100
0
POLYLINE
8
8
66
1
40
0.0100
41
0.0100
0
VERTEX
8
8
10
11.520000
20
17.360000
42
1.000000
0
VERTEX
8
8
10
11.520000
20
17.480000
42
1.000000
0
SEQEND
0
INSERT
8
8
2
32767
10
11.5200
20
17.4800
41
0.0100
42
0.0100
0
INSERT
8
8
2
32767
10
11.3800
20
17.4800
41
0.0100
42
0.0100
0
POLYLINE
8
8
66
1
40
0.0100
41
0.0100
0
VERTEX
8
8
10
11.380000
20
17.480000
42
1.000000
0
VERTEX
8
8
10
11.380000
20
17.360000
42
1.000000
0
SEQEND
0
INSERT
8
8
2
32767
10
11.3800
20
17.3600
41
0.0100
42
0.0100
0
TEXT
8
8
10
9.8400
20
18.9400
40
0.0600
1
C1
50
0.0
71
0
0
TEXT
8
8
10
9.8800
20
17.1400
40
0.0600
1
R7
50
0.0
71
0
0
TEXT
8
8
10
10.0600
20
17.5200
40
0.0600
1
R2
50
0.0
71
0
0
TEXT
8
8
10
10.3700
20
18.2400
40
0.0600
1
D3
50
0.0
71
0
0
TEXT
8
8
10
10.4300
20
17.4500
40
0.0600
1
R5
50
0.0
71
0
0
TEXT
8
8
10
10.7700
20
18.7200
40
0.0600
1
U2
50
0.0
71
0
0
TEXT
8
8
10
11.9700
20
19.2450
40
0.0600
1
40PINSOCKET
50
0.0
71
0
0
TEXT
8
8
10
10.7700
20
19.0800
40
0.0600
1
U3
50
0.0
71
0
0
TEXT
8
8
10
11.4100
20
18.7000
40
0.0600
1
U1
50
0.0
71
0
0
TEXT
8
8
10
9.8300
20
17.6900
40
0.0600
1
C2
50
0.0
71
0
0
TEXT
8
8
10
9.7700
20
18.1600
40
0.0600
1
R3
50
0.0
71
0
0
TEXT
8
8
10
10.9200
20
17.5200
40
0.0600
1
D2
50
0.0
71
0
0
TEXT
8
8
10
10.3100
20
17.1000
40
0.0600
1
R6
50
0.0
71
0
0
TEXT
8
8
10
10.5200
20
17.8800
40
0.0600
1
R4
50
0.0
71
0
0
TEXT
8
8
10
10.8800
20
17.1100
40
0.0600
1
C3
50
0.0
71
0
0
TEXT
8
8
10
9.9700
20
18.4100
40
0.0600
1
D1
50
0.0
71
0
0
TEXT
8
8
10
9.9800
20
18.8000
40
0.0600
1
R1
50
0.0
71
0
0
TEXT
8
8
10
10.1300
20
19.2100
40
0.0600
1
JP1
50
0.0
71
0
0
TEXT
8
8
10
12.0700
20
18.8800
40
0.0600
1
Z80-CPU
50
0.0
71
0
0
TEXT
8
8
10
11.3900
20
17.5100
40
0.0600
1
C5
50
0.0
71
0
0
INSERT
8
16
2
32767
10
9.7000
20
16.9000
41
0.0180
42
0.0180
0
TRACE
8
16
10
9.7090
20
16.9000
11
9.6910
21
16.9000
12
9.7090
22
19.4000
13
9.6910
23
19.4000
0
INSERT
8
16
2
32767
10
9.7000
20
19.4000
41
0.0180
42
0.0180
0
INSERT
8
16
2
32767
10
12.7700
20
16.9000
41
0.0180
42
0.0180
0
TRACE
8
16
10
12.7790
20
16.9000
11
12.7610
21
16.9000
12
12.7790
22
19.4000
13
12.7610
23
19.4000
0
INSERT
8
16
2
32767
10
12.7700
20
19.4000
41
0.0180
42
0.0180
0
INSERT
8
16
2
32767
10
9.7000
20
16.8600
41
0.0180
42
0.0180
0
TRACE
8
16
10
9.7000
20
16.8510
11
9.7000
21
16.8690
12
12.7000
22
16.8510
13
12.7000
23
16.8690
0
INSERT
8
16
2
32767
10
12.7000
20
16.8600
41
0.0180
42
0.0180
0
INSERT
8
16
2
32767
10
9.7000
20
16.8600
41
0.0180
42
0.0180
0
TRACE
8
16
10
9.7090
20
16.8600
11
9.6910
21
16.8600
12
9.7090
22
16.9100
13
9.6910
23
16.9100
0
INSERT
8
16
2
32767
10
9.7000
20
16.9100
41
0.0180
42
0.0180
0
INSERT
8
16
2
32767
10
12.7700
20
16.8600
41
0.0180
42
0.0180
0
TRACE
8
16
10
12.7790
20
16.8600
11
12.7610
21
16.8600
12
12.7790
22
16.9000
13
12.7610
23
16.9000
0
INSERT
8
16
2
32767
10
12.7700
20
16.9000
41
0.0180
42
0.0180
0
INSERT
8
16
2
32767
10
12.6900
20
16.8600
41
0.0180
42
0.0180
0
TRACE
8
16
10
12.6900
20
16.8510
11
12.6900
21
16.8690
12
12.7700
22
16.8510
13
12.7700
23
16.8690
0
INSERT
8
16
2
32767
10
12.7700
20
16.8600
41
0.0180
42
0.0180
0
INSERT
8
16
2
32767
10
9.7000
20
19.4500
41
0.0180
42
0.0180
0
TRACE
8
16
10
9.7000
20
19.4410
11
9.7000
21
19.4590
12
12.7000
22
19.4410
13
12.7000
23
19.4590
0
INSERT
8
16
2
32767
10
12.7000
20
19.4500
41
0.0180
42
0.0180
0
INSERT
8
16
2
32767
10
12.7000
20
19.4500
41
0.0180
42
0.0180
0
TRACE
8
16
10
12.7000
20
19.4410
11
12.7000
21
19.4590
12
12.7700
22
19.4410
13
12.7700
23
19.4590
0
INSERT
8
16
2
32767
10
12.7700
20
19.4500
41
0.0180
42
0.0180
0
INSERT
8
16
2
32767
10
12.7700
20
19.3700
41
0.0180
42
0.0180
0
TRACE
8
16
10
12.7790
20
19.3700
11
12.7610
21
19.3700
12
12.7790
22
19.4500
13
12.7610
23
19.4500
0
INSERT
8
16
2
32767
10
12.7700
20
19.4500
41
0.0180
42
0.0180
0
INSERT
8
16
2
32767
10
9.7000
20
19.3900
41
0.0180
42
0.0180
0
TRACE
8
16
10
9.7090
20
19.3900
11
9.6910
21
19.3900
12
9.7090
22
19.4500
13
9.6910
23
19.4500
0
INSERT
8
16
2
32767
10
9.7000
20
19.4500
41
0.0180
42
0.0180
0
ENDSEC
0
EOF
